Oops, an error
Loading. Please wait.

Making Friends And Acquaintances Tab

1,362 views 1 this week
4 commentsread comments
1 2 3 4 5
please rate
add to favorites
launch autoscroll
font size
0
reset
how to read this tab
guitar tuner
Tab Pro tools
  • play this tab
  • loop segment
  • change instrument
  • show fretboard
  • metronome
×
Best way to learn
"Making Friends And Acquaintances"
Autoscroll
slow
fast
+/-
esc
set tempo
stop
Contributor
Cursive - Making Friends and Acquiantances
Standard Tuning

Intro - Guitar 1

e----------------------------------------------------------------|
b----------------------------------------------------------------|
g-10--10--9-9-xx-10--10--9-9-xx-10--10--9-9-xx--10-10-10-10-10---|
d-x---x---x-x-xx-x---x---x-x-xx-x---x---x-x-xx--x--x--x--x--x----|
a-x---x---x-x-xx-x---x---x-x-xx-x---x---x-x-xx--x--x--x--x--x----|
E-x---x---x-x-xx-x---x---x-x-xx-x---x---x-x-xx--x--x--x--x--x----|

Intro - Guitar 2

e-17/19/17--15/17/15--13/15/13--13~---|
b-------------------------------------|
g-------------------------------------|
d-------------------------------------|
a-------------------------------------|
E-------------------------------------|

Guitar 2 - when he starts to sing

e-15-13--18-14-12-17-18--12-17-15-17--|
b-------------------------------------|
g-------------------------------------|
d-------------------------------------|
a-------------------------------------|
E-------------------------------------|

Guitar 1 plays this riff at about 0:40 -bubd-bendup bend down

e----------------------------------|
b-10-10-10/8-8/10~-----10bubd------|
g------------------12------12/14---|
d----------------------------------|
a----------------------------------|
E----------------------------------|

Guitar 1 lead up to chorus

e---------------|
b-8-10-10-1010--|
g---------1010--|
d---------------|
a---------------|
E---------------|

Guitar 2 lead up to chorus

e--------------------|
b--------------------|
g-------10-10--------|
d-7-7-7-8--8---------|
a--------------------|
E--------------------|

Chorus both guitars

e----------------------------------------------------------------|
b----------------------------------------------------------------|
g-10--10--9-9-xx-10--10--9-9-xx-10--10--9-9-xx--10-10-10-10-10---|
d-x---x---x-x-xx-x---x---x-x-xx-x---x---x-x-xx--x--x--x--x--x----|
a-x---x---x-x-xx-x---x---x-x-xx-x---x---x-x-xx--x--x--x--x--x----|
E-x---x---x-x-xx-x---x---x-x-xx-x---x---x-x-xx--x--x--x--x--x----|

Post Chorus "some lies last a life time"

e-------------------------|
b-10101010-10--10--10-----|
g------------12--12--12---|
d-------------------------|
a-------------------------|
E-------------------------|

Pre 2nd Chorus

e-------------11--|
b-10*--10-10--10--|
g-12*-----12--12--| *harmonics
d-----------------|
a-----------------|
E-----------------|

2nd Chorus

e--------------------------------------------------------------|
b--------------------------------------------------------------|
g-12-12-11-11-xx-12-12-11-11-xx--12-12-11-11-xx-121212121212---|
d-x--x--x--x--xx-x--x--x--x--xx--x--x--x--x--xx-x-x-x-x-x-x----|
a-10-10-9--9--xx-10-10-9--9--xx--10-10-9--9--xx-101010101010---|
E--------------------------------------------------------------|

then switches to this

e-------------------------------------------------------|
b-------------------------------------------------------|
g-10-10-9-9-xx-10-10-9-9-xx-10-10-9-9-xx-101010101010---|
d-x--x--x-x-xx-x--x--x-x-xx-x--x--x-x-xx-x-x-x-x-x-x----|
a-8--8--7-7-xx-8--8--7-7-xx-8--8--7-7-xx-8-8-8-8-8-8----|
E-------------------------------------------------------|

Bridge Guitar 1

e----------------------------------|
b-10-10-10/8-8/10~-----10bubd------|
g------------------12------12/14---|
d----------------------------------|
a----------------------------------|
E----------------------------------|

Bridge Guitar 2

e---------------------------|
b---------------------------|
g-10101010------------------|
d-10101010-10101010-99999---|
a-8-8-8-8--10101010-99999---|
E-----------8-8-8-8-77777---|

then this

Guitar 1

e-----------------------------|
b-----------------------------|
g-17-17-17---------16-16-16---|
d-x--x--x----------x--x--x----|
a-15-15-15---------14-14-14---|
E-----------------------------|

Guitar 2

e---------------------------|
b---------------------------|
g-10-10-10----------9-9-9---|
d-10-10-10----------9-9-9---|
a-8--8--8-----------7-7-7---|
E---------------------------|

THATS all the rest repeats
comments
We did not receive enough feedback on this tab! Please rate:
print report bad tab
1 2 3 4 5
4 comments total. Showing first comments.
+1 reply
obsolete faith wrote on March 11 2007, 01:40 am

dude i think the tab for the beginning of this song (and other parts of course) should be like this in standard.

e-x-x-x--x-x--x-x-x--x-x--x-x-x--x-x-x-x-x-x-x-x
b-5h6p5--x-x--5h6p5--x-x--5h6p5--6-6-6-6-6-6-6-6
g-x-x-x--x-x--x-x-x--x-x--x-x-x--x-x-x-x-x-x-x-x
d-x-x-x--x-x--x-x-x--x-x--x-x-x--x-x-x-x-x-x-x-x
a-5-5-5--x-x--5-5-5--x-x--5-5-5--5-5-5-5-5-5-5-5
E-x-x-x--x-x--x-x-x--x-x--x-x-x--6-6-6-6-6-6-6-6

0 reply
obsolete faith wrote on March 11 2007, 01:46 am

and then later it turns into this..
e-x-x-x--x-x--x-x-x--x-x--x-x-x--x-x-x-x-x-x-x-x
b-7h8p7--x-x--7h8p7--x-x--7h8p7--8-8-8-8-8-8-8-8
g-x-x-x--x-x--x-x-x--x-x--x-x-x--x-x-x-x-x-x-x-x
d-x-x-x--x-x--x-x-x--x-x--x-x-x--x-x-x-x-x-x-x-x
a-7-7-7--x-x--7-7-7--x-x--7-7-7--7-7-7-7-7-7-7-7
E-x-x-x--x-x--x-x-x--x-x--x-x-x--8-8-8-8-8-8-8-8

0 reply
yondungeonmaste wrote on March 27 2007, 12:18 am

this is how i play the intro in standard acording to youtube videos


e-x-x-x--x-x--x-x-x--x-x--x-x-x--x-x-x-x-x-x-x-x
b-6/5-5--x-x--6/5-5--x-x--6/5-5--7-7-7-7-7-7-7-7
g-x-x-x--x-x--x-x-x--x-x--x-x-x--x-x-x-x-x-x-x-x
d-3-3-3--x-x--3-3-3--x-x--3-3-3--5-5-5-5-5-5-5-5
a-5-5-5--x-x--5-5-5--x-x--5-5-5--7-7-7-7-7-7-7-7
E-x-x-x--x-x--x-x-x--x-x--x-x-x--x-x-x-x-x-x-x-x

I want to post or [tab]
guest
You may want to rate the tab now too:
select rating
Please do not post tabs as comments. Select "correction" instead!