Oops, an error
Loading. Please wait.

Night I Lost The Will To Fight Bass Tab

471 views 1 this week
no commentswrite comment
1 2 3 4 5
please rate
add to favorites
launch autoscroll
font size
0
reset
guitar tuner
Autoscroll
slow
fast
+/-
esc
set tempo
stop
Help us to improve Ultimate-Guitar.com Take our survey!
×
Contributor
RLA 190
Standard Tuning

Intro
G----------------------------|
D----------------------------|
A---------------------5~-----|
E-5~----8~----7~--0~------7~-|

Verse
G------------|
D------------|
A-----22--33-|
E-5500--33---|

Chorus
G-------------------------------------------------------------------|
D-------------------------------------------------------------------|
A-------------575-------------57--------------32--55-55-------------|
E-55-55-55-55-----88-88-88-88---8-77-00-77-00---3-------77-77-0-1-3-|

Verse - Same As Before

Then This Right Before He Sings Icecicles Hung Down...
G-------|
D-------|
A-------|
E-55555-

Chorus - Same As Before

Bridge
G--------------------------------------------------------------------|
D--------------------------------------------------------------------|
A---------------------------------------------------55555555---------|
E-5555555555555----8888888888888----7777777700000000--------77777777-|

Ending
G--------------------------------|
D--------------------------------|
A--------------------------------|
E-5555555555555----5555555555555-|
comments
We did not receive enough feedback on this tab! Please rate:
print report bad tab
1 2 3 4 5
I want to post or [tab]
guest
You may want to rate the tab now too:
select rating
Please do not post tabs as comments. Select "correction" instead!