Oops, an error
Loading. Please wait.

Proposals Bass Tab

206 views 1 this week
no commentswrite comment
1 2 3 4 5
please rate
add to favorites
launch autoscroll
font size
0
reset
guitar tuner
Autoscroll
slow
fast
+/-
esc
set tempo
stop
Help us to improve Ultimate-Guitar.com Take our survey!
×
Author
Standard Tuning

G------------------------------------|
D------------------------------------|
A------------------------------------| x1
E-3--3--3--3--3--3--3--3--3--3--3--3-|

G--------------------------------------------------|
D--------------------------------------------------|
A-------------------------8~--8-10~--8-7~--7-7-7-7-| x3
E-3~--3-3-1-3-6~--6-6-5-6--------------------------|

G-------------------------------------|
D-------------------------------------|
A-6-6-6-6-6-6-6-6-6-6-6-6-6-6-6-6-6-6-| x1
E-------------------------------------|

G-----------------------------------------------------|
D-----------------------------------------------------|
A-------------------------8~--8-10~--8-7~--7-13-12-10-| x1
E-3~--3-3-1-3-6~--6-6-5-6-----------------------------|

G--------------------------------------------------|
D--------------------------------------------------|
A-------------------------8~--8-10~--8-7~--7-7-7-7-| x2
E-3~--3-3-1-3-6~--6-6-5-6--------------------------|

G----------------|
D----------------|
A-6-6-6-6-6-6-6~-| x1
E----------------|

G------------------------------------|
D------------------------------------|
A------------------------------------| x2
E-3--3--3--3--3--3--3--3--3--3--3--3-|

G------------------------------------------------|
D------------------------------------------------|
A------------------------------------------------| x8
E-3--3--3--3--3--3--3--3--1--1--1--1--0--0--0--0-|

G------------------------------------|
D------------------------------------|
A------------------------------------| x1
E-3--3--3--3--3--3--3--3--1--1--1--1-|

G--------------------------------------------------|
D--------------------------------------------------|
A-------------------------8~--8-10~--8-7~--7-7-7-7-| x3
E-3~--3-3-1-3-6~--6-6-5-6--------------------------|

G-------------------------------------------------|
D-------------------------------------------------|
A-6-6-6-6-6-6-6-6-6-6-6-6-6-6-6-6-6-6-6-6-6-6-6-6-| x1
E-------------------------------------------------|

G--------------------------------------------------|
D--------------------------------------------------|
A-------------------------8~--8-10~--8-7~--7-7-7-7-| x3
E-3~--3-3-1-3-6~--6-6-5-6--------------------------|

G----------------|
D----------------|
A-6-6-6-6-6-6-6~-| x1
E----------------|

G---------------------------------------------------|
D---------------------------------------------------|
A---------------------------------------------------| x1
E-3--3--3--3--3--3--3--3--3--3--3--3--3--3--3--3--3-|
Suggest correction
Give kudos to tab author, rate the tab!
1 2 3 4 5
comments
print report bad tab
guest
You may want to rate the tab now too:
select rating
Wanna post a correction for this tab? Suggest correction