Oops, an error
Loading. Please wait.

Sierra Tab

4,070 views 1 this week
no commentswrite comment
1 2 3 4 5
x 5
add to favorites
launch autoscroll
font size
0
reset
how to read this tab
guitar tuner
Autoscroll
slow
fast
+/-
esc
set tempo
stop
Help us to improve Ultimate-Guitar.com Take our survey!
×
Author
First contribution, had to do it because I couldn't find one single tab online for this 
Cursive song. Just listened to it and figured out the chords by ear, so here you go.

                            Cursive
                            Sierra


Intro:
e|--------------------------------------------|
b|--------------------------7-----------------|
g|--7-----------------------7-----------------|
d|--7(palm-mute, repeatedly)7(open, repeatedly)
a|--5-----------------------5-----------------|
E|--------------------------------------------|

Verse:
e|-3----------------------------------------------------|
b|-3-------7-------8-------6------4-----6-----7---------|
g|-3-------7-------8-------7------5-----7-----7---------|
d|-5-------7-------8-------7------5-----8-----7x2-------|
a|-5-------5-------6-------5------3-----8-----5---------|
E|-3------------------------------------6---------------|
               strum appropriately
e|--------------------------|
b|--------------------------|
g|--------3------7----------|
d|-5------3(p.m)-7----------|
a|-5(p.m)-1------5----------|
E|-3------------------------|


Bridge:
e|------------------------------|
b|-8------4------6------7-------|
g|-8------5------7------7-------|
d|-8------5------8------7-------|
a|-6------3------8------5-------|
E|---------------6--------------|
repeat once, then after ^ the second the time:
e|---------------|
b|-8-------------|
g|-8-------------|
d|-8-------------|Sierra!
a|-6-------------|
E|---------------|

Intro
Verse
Verse
Bridge
Verse
Bridge/Outro
Suggest correction
comments
print report bad tab
guest
You may want to rate the tab now too:
select rating
Wanna post a correction for this tab? Suggest correction