Oops, an error
Loading. Please wait.

The Game Of Who Needs Who The Worst Bass Tab

version 1
version 1

Whole song

Interactive

1,031 views 1 this week
no commentswrite comment
1 2 3 4 5
2 more votes to show rating
add to favorites
launch autoscroll
font size
0
reset
guitar tuner
Autoscroll
slow
fast
+/-
esc
set tempo
stop
Help us to improve Ultimate-Guitar.com Take our survey!
×
Author
Tuning
D A D G B E
Drop D Tuning

Intro
G----17-------17----17----17-------17----17-|
D-13----13-13----13----15----15-15----15----|
A-------------------------------------------|
D-------------------------------------------|

G----15-------15----15-17----17-17-17----17-|
D-17----17-17----17-------17----------17----|
A-------------------------------------------|
D-------------------------------------------|

Verse - Listen For Little Pauses
G---------------------------------------------------------------------|
D---------------------------------------------------------------------|
A-3333333-------------------------11111111-33333333-00000000----------|
D---------4444444-5555555-1111111----------------------------66666666-|

G---------------------------------------------------------------------|
D---------------------------------------------------------------------|
A-3333333-------------------------11111111-33333333-00000000----------|
D---------4444444-5555555-1111111----------------------------66666666-|

G----------|
D----------|
A----------|
D-66666666-

Intro - Same As Before

After This Intro Hit This And Let Ring
G----
D----
A-3~-
D----

Bridge
G----------------------|
D----------------------|
A----------------------| x4
D-7p6-6-6-7p6-6-6-8888-|

G--------------------------------------------|
D--------------------------------------------|
A-6~---------3~------------------------------|
D-----------------------7p6-6-6-7p6-88888888-|

G--------------------------------------------|
D--------------------------------------------|
A-6~--8-10~--3~--8-10~-----------------------|
D-----------------------7p6-6-6-7p6-88888888-|

G--------------------------|
D--------------------------|
A---------------333--------|
D-333----666-----------888-|

G-------------------------------------------------|
D-------------------------------------------------|
A-------------------------------------------------|
D-6-6-6-6-6-6-8-8-8-8-8-8-6-6-6-6-6-6-8-8-8-8-8-8-|

G-------------------------------------------------|
D-6-6-6-6-6-6-8-8-8-8-8-8-6-6-6-6-6-6-8-8-8-8-8-8-|
A-------------------------------------------------|
D-------------------------------------------------|
Suggest correction
Give kudos to tab author, rate the tab!
1 2 3 4 5
comments
print report bad tab
guest
You may want to rate the tab now too:
select rating
Wanna post a correction for this tab? Suggest correction