Oops, an error
Loading. Please wait.

The Recluse Acoustic tab

version 4
version 4

Whole song

Interactive

by Cursive
106 views 3 this week
no commentswrite comment
1 2 3 4 5
2 more votes to show rating
add to favorites
×
Save as Personal and add changes to this tab that will be seen only by you. Learn more ›
×
You can save this tab as Personal to edit and correct it or add notes. All changes will be seen only by you. Learn more »
launch autoscroll
font size
0
reset
how to read this tab
guitar tuner
edit
Autoscroll
slow
fast
+/-
esc
set tempo
stop
Capo 3rd or to your voice

Chord progression
C 0/3/2
0/2/1/2
EM 0/2/2
G 3/2/0

Intro                Slide 2/4
E---------------------------------0-------------3---------
A----3--3------------2--------------2-------------2-------
D-----2---2----2-------1--------------2-------------4----- X2
G-----------------------2-2-4-----------0---0---------0---
B------------0----------------------------0---------------
E---------------------------------------------------------


Chord progression
C     0/2/1/2       Em              G     
I wake alone, in a woman's room I hardly know.
C     0/2/1/2       Em               G
I wake alone- and pretend that I am finally home.
     C       0/2/1/2           Em          G
The room is littered with her books and notebooks.
     C     0/2/1/2        Em (Hold)
I imagine what they say, like, 'Shoo fly, don't bother me,'
 
      C                    0/2/1/2       Em
And I can hardly get myself out of her bed.
   G           C         0/2/1/2      Em
for fear of never lying in this bed again.

   G        C  0/2/1/2 Em   G       C   0/2/1/2   Em           *Hold each chord*
Oh Christ, I'm not that desperate. oh no- oh God- I am.

Repeat intro x2
E---------------------------------0-------------3---------
A----3--3------------2--------------2-------------2-------
D-----2---2----2-------1--------------2-------------4----- X2
G-----------------------2-2-4-----------0---0---------0---
B------------0----------------------------0---------------
E---------------------------------------------------------

Repeat chord progression

How'd I end up here to begin with? I don't know.
Why do I start what I can't finish?
Oh please, don't barrage me with questions to all those ugly answers.
My ego's like my stomach- it keeps shitting what I feed it.
But maybe I don't want to finish anything anymore..
maybe I can wait in bed 'til she comes home. and whispers.

"you're in my web now - I've come to wrap you up tight 'til it's time to bite down."

I wake alone in a woman's room I hardly know.
I wake alone - and pretend that I am finally home.
Suggest correction
Creating personal tab
Creating personal tab
You can edit any tab online and save it as your Personal.

You can edit, replace or remove any tab part or add personal notes – all changes will be seen only by you.

Personal tabs can be accessed anytime from any device, even offline.
Learn more »
Give kudos to tab author, rate the tab!
1 2 3 4 5
comments
print report bad tab
guest
Wanna post a correction for this tab? Suggest correction