Oops, an error
Loading. Please wait.

The Road To Financial Stability Bass Tab

360 views 1 this week
no commentswrite comment
1 2 3 4 5
please rate
add to favorites
launch autoscroll
font size
0
reset
guitar tuner
Autoscroll
slow
fast
+/-
esc
set tempo
stop
Help us to improve Ultimate-Guitar.com Take our survey!
×
Author
Tuning
D A D G B E
Drop D Tuning

G-----------------|
D-----------------|
A-55555-8-8-------| x12
D-----------8-8-7-|

G---------------------------------|
D---------------------------------|
A---------------------------------| x1
D-55555-5-5-5-5-5-5-5-5-5-5-5-5-5-|

G------------------------------------------|
D------------------------------------------|
A-5----8-----------------------------------| x1
D---------8--8-8--8--7-7-7-7-7-7-5-5-5-5-5-|

G-----------------|
D-----------------|
A-55555-8-8-------| x12
D-----------8-8-7-|

G---------------------------------|
D---------------------------------|
A---------------------------------| x1
D-55555-5-5-5-5-5-5-5-5-5-5-5-5-5-|

G------------------------------------------------|
D------------------------------------------------|
A-8----10--7----7--------------------------------| x1
D------------------8----10--7--7-7--7--7--7-7--7-|

G-----------------------------------------------|
D-----------------------------------------------|
A-----------------------------------------------| x1
D-0--0-0--0--8--8-8--8--7--7-7--7--5--5-5-0-3-5-|

G---------------------------------|
D---------------------------------|
A---------------------------------| x1
D-0--0-0--0--8--8-8--8--7--7-7--7-|

G-------------------------|
D-------------------------|
A-------------------------| x1
D-5-5-5-5-5-5-5-5-5-5-5-5-|

G-------|
D-------|
A-55555- x9
D-------
Suggest correction
Give kudos to tab author, rate the tab!
1 2 3 4 5
comments
print report bad tab
guest
You may want to rate the tab now too:
select rating
Please do not post tabs as comments. Select "correction" instead!