Oops, an error
Loading. Please wait.

Future Shock Bass Tab

1,230 views 3 this week
no commentswrite comment
1 2 3 4 5
3 more votes to show rating
add to favorites
launch autoscroll
font size
0
reset
guitar tuner
Autoscroll
slow
fast
+/-
esc
set tempo
stop
Help us to improve Ultimate-Guitar.com Take our survey!
×
Tabbed by: Raphael Ramos (adobopalusami@yahoo.com)

Very Funky Groove!!

Main riff:
                                                                        
G-----------------------------|--------------------------|
D--6----------------------3456|--6---------------------4-|
A----6-----------4--6---6-----|----6-----------4--6---6--|
E-------44--444---------------|-------44--444------------| Repeat

Bridge:

G----------6----------|-----------6----------------------|
D---------------------|----------------------------------|
A--4---4-----4-----2-3|--4---4----4---4-5-6--6------6----|
E---------------------|--------------------------66------| Repeat to Main Riff 

                                                       
Suggest correction
Give kudos to tab author, rate the tab!
1 2 3 4 5
comments
print report bad tab
guest
You may want to rate the tab now too:
select rating
Wanna post a correction for this tab? Suggest correction