Oops, an error
Loading. Please wait.

Pusherman Bass Tab

version 2
version 2

Whole song

Interactive

4,689 views 9 this week
3 commentsread comments
1 2 3 4 5
x 5
add to favorites
launch autoscroll
font size
0
reset
guitar tuner
Autoscroll
slow
fast
+/-
esc
set tempo
stop
Help us to improve Ultimate-Guitar.com Take our survey!
×
Author
Difficulty
intermediate
-------------------------------------------------------------------------------
                            Pusher Man - Curtis Mayfield
-------------------------------------------------------------------------------

Tabbed By : caveman_bassman
e-mail: cavemanbassman510@yahoo.com

This bassline is classic and great!  It's just a jam song basically...only two parts.
 It has a huge instrument section and a bunch of solos.  Feel the groove.  This isn't
exact bassline all the way through because the original has a bunch of improvisations
to it.  These are the lines you can improvise with when you are comfortable.  F Blues 
(F-Ab-Bb-B-C-Eb-(F)) He also throws in a G every now and then...the 9th.


part a
G|-----------------|----------------|
D|-----3---------1-|----------------|  (repeat until next part- not sure the exact amount of bars)
A|-----------------|------3---1---3-|
E|-1---------------|----------------|

   1 + 2 + 3 + 4 +  1 + 2 + 3 + 4 +

part b
G|----------------|----3/5\\\------|------3---1-----|----------------|
D|-------------3--|----------------|--------------3-|----------------|
A|-1-----3--------|----------------|----------------|--3/4---1---1-3-|
E|----------------|----------------|----------------|----------4-----|

   1 + 2 + 3 + 4 + 1 + 2 + 3 + 4 +  1 + 2 + 3 + 4 +  1 + 2 + 3 + 4 +


Just follow the rhythm, and make sure to count the breaks.


| /  slide up
| \  slide down
| h  hammer-on
| p  pull-off
| ~  vibrato
| +  harmonic
| x  Mute note
===============================================================================
Suggest correction
comments
print report bad tab
3 comments total.
0 reply
Kay-J 166 Apr 28, 2010 11:56 AM

Great tab, it's in a different key for me though, one fret down. thanks for the tab

0 reply
caveman_bassman 182 Apr 28, 2010 01:23 PM, edited on October 28 2015, 04:01 pm

Thanks man. On the recording I found, I think it was altered so copyright programs couldn't find it... You are correct, the original key is F

0 reply
Captain Paradox 41 Jan 13, 2012 05:33 PM

This is in the wrong key, it's a half step down from what's written and the B section is close but not correct.

guest
You may want to rate the tab now too:
select rating
Wanna post a correction for this tab? Suggest correction