Oops, an error
Loading. Please wait.

Superfly Bass Tab

version 2
version 2

Whole song

Interactive

3,296 views 21 this week
no commentswrite comment
1 2 3 4 5
please rate
add to favorites
launch autoscroll
font size
0
reset
guitar tuner
Autoscroll
slow
fast
+/-
esc
set tempo
stop
Help us to improve Ultimate-Guitar.com Take our survey!
×
Author
Difficulty
novice
Tabbed by Andre King
3rdeyelevel@gmail.com


G----------------------------------------------------------|
D--------------12---14-------------------12---14-----------|
A---------------------------14-----------------------------|
E----12-0------------------------12------------------------| and repeat

or

G-------------------------------------------------------|
D-------------------------------------------------------|
A-------------------------------------------------------|
E---00--10--12--7--0--10---12---------------------------| and repeat
Suggest correction
Give kudos to tab author, rate the tab!
1 2 3 4 5
comments
print report bad tab
guest
You may want to rate the tab now too:
select rating
Please do not post tabs as comments. Select "correction" instead!