Oops, an error
Loading. Please wait.

Think Tab

version 2
version 2

Whole song

2,870 views 12 this week
no commentswrite comment
1 2 3 4 5
please rate
add to favorites
launch autoscroll
font size
0
reset
how to read this tab
guitar tuner
Autoscroll
slow
fast
+/-
esc
set tempo
stop
Help us to improve Ultimate-Guitar.com Take our survey!
×
Author
-------------------------------------------------------------------------------
                             Think - Curtis Mayfield
-------------------------------------------------------------------------------
Tabbed by: Kent

Keep in mind that although theme 1 has an ascending feeling and theme 2 has a descending 
it
doesn't matter much which one you play at any particular time. the only important reason
I differentiate
between them in the tab is emphasize that you play the end of the theme slightly 
when you're
about to go into theme 3.

It's fun.


0:00
theme 1
e|--------------------------------------------------------------------------------------|
B|-3------3---4------4---5----5----5-7-8-7------7h10p7---5h7p5-------------3-3-3--3-5-3-|
G|---2--2---2---2--2---2----4----4-4-----7-----7------7-------7p4/2-0-----4---2--2--4-4-|
D|--4--4---4---4--4---4--2-2--2-2--2-----7----7--------7-------------2-0-2---4--4---5-5-|
A|-5--5---5---2--2---2-------------------5---5------------------------------------------|
E|--------------------------------------------------------------------------------------|

0:16
theme 2
e|------------------------------------------------------------------------------------|
B|-3------3--4------4---5---5---5-7-8-7------7h10p7---5h7p5-------------3-3-------3---|
G|--2------2--2------2---4---4--4-----7-----7------7-------7p4/2-0-----4---2---2---2--|
D|---4-4----4--4-4----4-2-2-2-2-2-----7----7--------7-------------2-0-2---4-4-4-4-4-4-|
A|-5--5-5-5--2--2-2-2-----------------5---5-------------------------------------------|
E|------------------------------------------------------------------------------------|

0:32
theme 3
e|---------------------------------------------------------------------------|
B|--8-----------8----8---------7h10p7---5h7p5-------------3-3-------3-3------|
G|---9-----------9----7--------------7-------7p4/2-0-----4-----2-2--4-4------|
D|----10--10------10---9--9-----------7-------------2-0-2---4-4-4-4-5-5------|
A|-10---10--10-10---10--10-10------------------------------------------------|
E|---------------------------------------------------------------------------|

0:42
theme 1 , but end with
e|---------------------------------------------------------------------------|
B|---3--------------5--3-----------------------------------------------------|
G|-5-4-----and-not---4--4----------------------------------------------------|
D|-5-5--------------5--5-----------------------------------------------------|
A|---------------------------------------------------------------------------|
E|---------------------------------------------------------------------------|
(each theme may have slightly different endings throughout the song, not to mention the 
that
each theme has slight alterations throughout themselves throughout the song. just fool around.
throughout.)

0:59
theme 1, along with this melody:
e|----------------------7/10vv--\7-10p7h10-10/14v----10-12p10---10----7h10------|
B|-7p5p3-7p5p3-7/10v-----------------------------------------12----10-----------|
G|------------------------------------------------------------------------------|
D|------------------------------------------------------------------------------|
A|------------------------------------------------------------------------------|
E|------------------------------------------------------------------------------|

1:16
theme 2 (with melody)

1:32
theme 3

1:44
theme 1 (with melody)

2:00
sax solo
D        G     X3
D        G A

2:25
theme 1 (with melody)

2:42
theme 2 (with melody)

2:58
theme 3

3:09
theme 1 (with melody)

3:26
outtro
D        G       X2
D......................


| /  slide up
| \  slide down
| h  hammer-on
| p  pull-off
| ~  vibrato
| +  harmonic
| x  Mute note
===============================================================================
Suggest correction
What's this?
You can suggest a correction to this tab. Community and Mods will review your correction and vote to approve or reject it.
comments
We did not receive enough feedback on this tab! Please rate:
print report bad tab
1 2 3 4 5
guest
You may want to rate the tab now too:
select rating
Please do not post tabs as comments. Select "correction" instead!