Oops, an error
Loading. Please wait.

Inca Dance Bass Tab

16 views 1 this week
no commentswrite comment
1 2 3 4 5
3 more votes to show rating
add to favorites
launch autoscroll
font size
0
reset
guitar tuner
Autoscroll
slow
fast
+/-
esc
set tempo
stop
Help us to improve Ultimate-Guitar.com Take our survey!
×
Author
Difficulty
novice
[Intro]
G|----------------|----------------|----------------|----------------| (x3)
D|----------------|----------------|----------------|----------------|
A|--------r-------|---------r------|--------r-------|--------r-------|
E|----------------|----------------|----------------|----------------|

[Verse 1]
G|----------------|----------------|----------------|-----------------|
D|----------------|----------------|----------------|----------1-0----|
A|--3-----3----1--|--3-----3----3--|--1-----1----1--|--3-----3-----1--|
E|-----3-----3----|-----3-----3----|-----1-----1----|-----3-----------|

G|----------------|----------------|----------------|----------------|
D|----------------|----------------|----------------|-------------1--|
A|--3-----3----1--|--3-----3----3--|--1-----1----1--|--3-----3--3----|
E|-----3-----3----|-----3-----3----|-----1-----1----|-----3----------|

[Chorus]
G|-----------0--|--1--2--3----0-|-1-----1-----|--3--0--5-----|
D|--3-----3-----|-----------3---|----1-----3--|--------------|
A|-----3--------|---------------|-------------|-----------3--|
E|--------------|---------------|-------------|--------------|

G|-----------0--|--1--2--3----0-|-1-----1-----|--3--0--5-----|
D|--3-----3-----|-----------3---|----1-----3--|--------------|
A|-----3--------|---------------|-------------|-----------3--|
E|--------------|---------------|-------------|--------------|

[Bridge]
G|----------------|-----------------|
D|----------------|----------1-0----|
A|--3-----3----1--|--3-----3-----1--|
E|-----3-----3----|-----3-----------|

[Verse 2]
G|--------------|----------------|--------------|-----------------|
D|-----5--------|----------------|-----5--------|----------1-0----|
A|--3-----6--3--|--1-----3----1--|--3-----6--3--|--1-----3-----1--|
E|--------------|-----3-----3----|--------------|-----3-----------|

G|--------------|----------------|--------------|----------------|
D|-----5--------|----------------|-----5--------|----------------|
A|--3-----6--3--|--1-----3----1--|--3-----6--3--|--1-----3--3----|
E|--------------|-----3-----3----|--------------|-----3-------3--|

[Chorus]
G|----------------|----------------|--------------|--3-----5-----|
D|--------3-------|-----------3-5--|--6--------6--|-----5--------|
A|-----3----------|----------------|-----6--------|-----------3--|
E|--1--------1-3--|--4--5--6-------|--------4-----|--------------|

G|----------------|----------------|--------------|--3-----5-----|
D|--------3-------|-----------3-5--|--6--------6--|-----5-----5--|
A|-----3----------|----------------|-----6--------|--------------|
E|--1--------1-3--|--4--5--6-------|--------4-----|--------------|

[Verse 3]
G|--------------|---------------|-------------|---------------|
D|--------------|---------------|-------------|---------------|
A|----3-3-3--3--|----3--3----3--|----1-1---1--|----1--1----1--|
E|--------------|----------3----|-------------|----------1----|

G|-------------|---------------|---------|---------|---------------|
D|-------------|---------------|---------|---------|---------------|
A|----3-3---3--|----3--3----3--|----6-6--|---------|---------3--3--|
E|-------------|----------3----|---------|----6-6--|----4--3-------|

[Verse 4]
G|-------------------8-----|----------8---------|-------------------8-----|----------8-----|
D|--10-12-10-8-10-12-------|--8-10-12---10--10--|--10-12-10-8-10-12-------|--8-10-12---10--|
A|---------------------10--|--------------------|---------------------10--|----------------|
E|-------------------------|--------------------|-------------------------|----------------|

G|----------------|----------------|-------------------8-----|----------8-----|
D|----------------|----------------|--10-12-10-8-10-12-------|--8-10-12---10--|
A|--------r-------|--------r-------|---------------------10--|----------------|
E|----------------|----------------|-------------------------|----------------|

[Verse 5]
G|----------------|----------------|----------------|-----------------|
D|----------------|----------------|----------------|----------3-2----|
A|--5-----5----3--|--5-----5----5--|--3-----3----3--|--5-----5-----3--|
E|-----5-----5----|-----5-----5----|-----3-----3----|-----5-----------|

G|----------------|----------------|----------------|-----------------|
D|----------------|----------------|----------------|----------3-2----|
A|--5-----5----3--|--5-----5----5--|--3-----3----3--|--5-----5-----3--|
E|-----5-----5----|-----5-----5----|-----3-----3----|-----5-----------|

[Chorus]
G|--------------|--------------|--------------|------------7----|
D|--5-----5-----|-----------2--|--------------|----------7---7--|
A|-----5-----5--|-----2--3-----|--1-----1-----|--3-----5--------|
E|--------------|--3-----------|-----1-----3--|-----5-----------|

G|--------------|---------------|-------------|---------------|
D|--5-----------|---------------|-------------|---------------|
A|-----5--------|-------------0-|-1-----1-----|--3------5--5--|
E|--------3--5--|--6--7--8--3---|----1-----3--|-----3-5-------|

[Verse 6]
G|----------------|---------------|---------------|---------------|
D|----------------|---------------|---------------|---------------|
A|--5----3-5----3-|-5----3-5----5-|-3----2-3----2-|-3----2-3----3-|
E|-----5------5---|----5------5---|----3------3---|----3------3---|

G|---------------|---------------|---------------|--------------|
D|---------------|-------------2-|-3----3--------|------------2-|
A|-5----3-5----3-|-5----3-5--5---|----3---3----3-|-1--0--5--5---|
E|----5------5---|----5----------|-----------3---|--------------|

[Outro]
G|---------------|-------------|
D|-3----3--------|-------------|
A|----3---3----3-|-1--0--5--5--|
E|-----------3---|-------------|


*******************

| r : rest

*******************

in regular sequence!
Suggest correction
Give kudos to tab author, rate the tab!
1 2 3 4 5
comments
print report bad tab
guest
You may want to rate the tab now too:
select rating
Wanna post a correction for this tab? Suggest correction