Oops, an error
Loading. Please wait.

Carried Away Tab

759 views 1 this week
no commentswrite comment
1 2 3 4 5
please rate
add to favorites
launch autoscroll
font size
0
reset
how to read this tab
guitar tuner
Autoscroll
slow
fast
+/-
esc
set tempo
stop
Help us to improve Ultimate-Guitar.com Take our survey!
×
Author
Cappo 5th fret

(frets shown are actual frets, not distance from cappo)

It not perfect, but a good feel for the song. 


e|--12---------------------14--------------------------------------|     
B|--------------5----------------------5---------12----------12----|
G|---------11---------------------11--------------------11---------|  
D|------12---------12----------12---------12---------12------------|
A|--5---------5------------5---------5-----------5---------5----12-|
E|-----------------------------------------------------------------|


e|--5----------------------|
B|--------------5----------|        Part A
G|---------11--------------|           
D|------12---------12------|          x8
A|--5---------5------------|
E|-------------------------|





e|-------------------------------------------------------|  
B|--------8-----------------------8----------------------|
G|--9---9-----9-----9-------9---9-------9------9---------|  
D|--7------------7----------5--------------7-------------|
A|-------------------------------------------------------|
E|----------5------------------------5-------------------|


e|-------------------------------------------------------|
B|--12------------12----------5------------5-------------|   Part B
G|---------11-----------------------11-------------------|  
D|------12-----------------------12-----------12---------|     x2
A|--5----------5------12------5---------5----------------|    
E|-------------------------------------------------------|





e|-------------------------------------------------------|  
B|--------8-----------------------8----------------------|
G|--9---9-----9-----9-------9---9-------9------9---------|  
D|--7------------7----------5--------------7-------------|
A|-------------------------------------------------------|
E|----------5------------------------5-------------------|


e|-------------------------------------------------------|
B|-------------------------------------------------------|  Part C
G|--10--10---------10-----------10--10----------10-------|  
D|--9-----------------9---------9-------------------9----|    x1
A|-----------10----------------------------10------------|
E|-------------------------------------------------------|




e|------------------------------------------7------------|
B|-------------------12-----------------------7----------|   Part D
G|-------------------11----------------------------------|  
D|---------12-----------12-----------9-------------------|     x4
A|-------12-------------------------9--------------------|
E|--10----------10--------------7--------7---------------|



Then:

Part A  x6

Part B  x2

Part C  x1

Part D  x4

Part A  x4

Part B  x2

Part C  x1

Part D  x4

Part A  to finish
Suggest correction new What's this?
You can suggest a correction to this tab. Community and Mods will review your correction and vote to approve or reject it.
comments
We did not receive enough feedback on this tab! Please rate:
print report bad tab
1 2 3 4 5
guest
You may want to rate the tab now too:
select rating
Please do not post tabs as comments. Select "correction" instead!