Oops, an error
Loading. Please wait.

Up Late Bass Tab

318 views 1 this week
no commentswrite comment
1 2 3 4 5
please rate
add to favorites
launch autoscroll
font size
0
reset
guitar tuner
Autoscroll
slow
fast
+/-
esc
set tempo
stop
Help us to improve Ultimate-Guitar.com Take our survey!
×
Author
Difficulty
novice
-------------------------------------------------------------------------------
			     Up Late - Custom Kings
-------------------------------------------------------------------------------

Tabbed By : mitchellsaba
e-mail: nightmares_hush@hotmail.com

Tuning: Standard E,A,D,G

Intro
G|---------------------------------------------------------------------------|
D|---------------------------------------------------------------------------|
A|7-5-3-x33-x10-9-10-9h1010-x7-5-3-x33-x10-9-10------------------------------|
E|----------------------------------------------3-3--------------------------|

Verse
G|---------------------------------------------------------------------------|
D|---------------------------------------------------------------------------|
A|7-5-3-x33-x10-9-10-9h1010-x7-5-3-x33-x10-9-10-9h1010-x---------------------|
E|---------------------------------------------------------------------------|

G|---------------------------------------------------------------------------|
D|---------------------------------------------------------------------------|
A|7-5-3-x33-x10-9-10-----7-5-3-x33-x10-9-10----------------------------------|
E|-------------------3-3-----------------------------------------------------|

Rest in Pre Chorus

Chorus (0:41)
G|---------------------------------------------------------------------------|
D|---------------------------------------------------------------------------|
A|3-3--3-3--7-7/10-10--3-3--3-3--7-7/10-10-----------------------------------|
E|---------------------------------------------------------------------------|

Verse
G|---------------------------------------------------------------------------|
D|---------------------------------------------------------------------------| x2
A|7-5-3-x33-x10-9-10-9h1010-x7-5-3-x33-x10-9-10------------------------------|
E|----------------------------------------------3-3--------------------------|

Rest in Pre Chorus 

Chorus (1:23)
G|---------------------------------------------------------------------------|
D|---------------------------------------------------------------------------| x2
A|3-3--3-3--7-7/10-10--3-3--3-3--7-7/10-10-----------------------------------|
E|---------------------------------------------------------------------------|

Post Chorus
G|---------------------------------------------------------------------------|
D|---------------------------------------------------------------------------|
A|7-5-3-x33-x10-9-10-9h1010-x7-5-3-x33-x10-9-10-9h1010-x---------------------|
E|---------------------------------------------------------------------------|

Break Down
G|--------------------------------------|
D|--------------------------------------| x4
A|--101088------------------------------|
E|00------108-8664433-------------------|

Rest

Chorus (2:14)
G|---------------------------------------------------------------------------|
D|---------------------------------------------------------------------------|
A|3-3--3-3--7-7/10-10--3-3--3-3--7-7/10-10-----------------------------------|
E|---------------------------------------------------------------------------|

Outro
G|---------------------------------------------------------------------------|
D|---------------------------------------------------------------------------|
A|7-5-3-x33-x10-9-10-9h1010-x7-5-3-x33-x10-9-10-10--10-----------------------|
E|------------------------------------------------00-------------------------|


| /  slide up
| \  slide down
| h  hammer-on
| p  pull-off
| ~  vibrato
| +  harmonic
| x  Mute note
===============================================================================
Suggest correction
Give kudos to tab author, rate the tab!
1 2 3 4 5
comments
print report bad tab
guest
You may want to rate the tab now too:
select rating
Wanna post a correction for this tab? Suggest correction