Oops, an error
Loading. Please wait.

Lights And Music Bass Tab

40 views 1 this week
no commentswrite comment
1 2 3 4 5
3 more votes to show rating
add to favorites
launch autoscroll
font size
0
reset
guitar tuner
Autoscroll
slow
fast
+/-
esc
set tempo
stop
Help us to improve Ultimate-Guitar.com Take our survey!
×
Author
Difficulty
intermediate
[Intro/Verses]

(0:15)
G|-----------------------------------|
D|--------------4--4-----------------|
A|-----------------------------------|
E|--6--6--6-4-6------2-4-4-4-4-------|(x24)

Then rest for a few measures


[Chorus 1]

(2:01)
G|---------------------------------------------------------|
D|---------------------------------------------------------|
A|--1--1--1--1-1-------------------------------------------|
E|---------------2--2--2--2-2h4--4--4--4-4-4--4--4--4-4----|(x4)

Rest a few more measures


[Chorus 2]

(3:33) 
G|------------1h3p1-----------------------------------|
D|---------1h3-----3----------------------------------|
A|--1--1--1------------------4-------------------4----|
E|-------------------2-2--2-----4--4--4-4-4--0-4------|(x4)

(4-03) Repeat the 1st Chorus as the outro X4


[Outro]

(4:03)
G|---------------------------------------------------------|
D|---------------------------------------------------------|
A|--1--1--1--1-1-------------------------------------------|
E|---------------2--2--2--2-2h4--4--4--4-4-4--4--4--4-4----|(x4)


************************************

| h  Hammer-on
| p  Pull-off

************************************
Suggest correction
Give kudos to tab author, rate the tab!
1 2 3 4 5
comments
print report bad tab
guest
You may want to rate the tab now too:
select rating
Wanna post a correction for this tab? Suggest correction