Oops, an error
Loading. Please wait.

Where Im Going bass

387 views 1 this week
3 commentsread comments
1 2 3 4 5
x 3
add to favorites
×
Save as Personal and add changes to this tab that will be seen only by you. Learn more ›
×
You can save this tab as Personal to edit and correct it or add notes. All changes will be seen only by you. Learn more »
launch autoscroll
font size
0
reset
guitar tuner
edit
Autoscroll
slow
fast
+/-
esc
set tempo
stop
Author
Difficulty
Cut Copy
Where I'm Going
Zonoscope
Tuning is Standard 

Intro
G|---------------------------------|
D|---------------------------------|
A|6-6-6-6-6-6-----3-3-4-4-4-4-4-4-5|
E|------------4-4------------------|Repeat as needed

I think the octave of it plays over the inrto.
G|8-8-8-8-8-8-----5-5-6-6-6-6-6-6-7|
D|------------6-6------------------|
A|---------------------------------|
E|---------------------------------|

Verse
G|--------------------------------------------------|
D|--------------------------------------------------|
A|66-66-66-66-66-66-66-66-66-66-66-44-44-44-44-44-44|
E|--------------------------------------------------|

Chorus
G|--------------------------------------------------------------|
D|--------------------------------------------------------------|
A|33-33-33-33-33-33-44-44-44-44-44-44-66-66-66-66-66-66-66-66-66|
E|--------------------------------------------------------------|

Bridge
G|-----------------------------------------------------|
D|-----------------------------------------------------|
A|6---6---6---6--66-66-66-66-33-33-33-44-44-44-66-66-66|
E|-----------------------------------------------------|
Now the bass in fact rests here, however, if you fancy playing it 
I tap the note with my fretting hand, and rest your other hand.
I find it kinda simulates that synthy sound, also when you come to 
playing the final chorus as usual, its louder and more dramatic, 
if you know what I mean. A delay pedal on this bit would be pretty
sweet too if you happen to have one knocking around.

            
            
Suggest correction
Creating personal tab
Creating personal tab
You can edit any tab online and save it as your Personal.

You can edit, replace or remove any tab part or add personal notes – all changes will be seen only by you.

Personal tabs can be accessed anytime from any device, even offline.
Learn more »
Give kudos to tab author, rate the tab!
1 2 3 4 5
comments
print report bad tab
3 comments total.
0 reply
jamieman 10 Feb 22, 2015 03:36 AM

it is well good this tab b b b b b b b b b b b so so im im going to breath to eat

0 reply
jamieman 10 Feb 22, 2015 03:47 AM

wat hey wat hhey

0 reply
maxpowweer 639 Feb 23, 2015 02:54 AM

jamieman, what are you on about?

guest
You may want to rate the tab now too:
select rating
Wanna post a correction for this tab? Suggest correction