Oops, an error
Loading. Please wait.

Curse Of Curves tab

version 1
version 1

Whole song

Interactive

10,301 views 6 this week
2 commentsread comments
1 2 3 4 5
1 last vote to show rating
add to favorites
×
Save as Personal and add changes to this tab that will be seen only by you. Learn more ›
×
You can save this tab as Personal to edit and correct it or add notes. All changes will be seen only by you. Learn more »
launch autoscroll
font size
0
reset
how to read this tab
guitar tuner
edit
Autoscroll
slow
fast
+/-
esc
set tempo
stop
Author
This is basically and updated version of the original tab thanks to fatkidsonmopeds for 
out the original tab.

Verse/Intro
e|-----------------------------------------------------------------|
B|-----------------------------------------------------------------|
G|--7-7-7-7-7-7-7---5-5-5-5-5-5--10-10-10-10-10-10-----------------|
D|--7-7-7-7-7-7-7---5-5-5-5-5-5--10-10-10-10-10-10--8-8-8-8-8-8-8--|
A|--5-5-5-5-5-5-5---3-3-3-3-3-3--8--8--8--8--8--8---8-8-8-8-8-8-8--|
E|--------------------------------------------------6-6-6-6-6-6-6--|
palm mute and play gently to get the light sound

Pre chorus: (The inside lingo had me at hello..)
e|------------------------|
B|------------------------|
G|-3---5-------3--5-------|
D|-3---5---3---3--5---3---|
A|-1---3---3---1--3---3---|
E|---------1----------1---|

Chorus:
e|----------------------------------------|
B|----------------------------------------|
G|--------5----3-3-3-3----------5---3-----|
D|--3-----5----3-3-3-3-----3----5---3-----|
A|--3-----3----1-1-1-1-----3----3---1-----|
E|--1----------------------1--------------|

Verse:
e|----------------------------------------------------------------|
B|----------------------------------------------------------------|
G|--7-7-7---7-7-7---5-5-5---5-5--------------------3-3-3---3-3-3--|
D|--7-7-7---7-7-7---5-5-5---5-5--3--3----3--3--3---3-3-3---3-3-3--|
A|--5-5-5---5-5-5---3-3-3---3-3--3--3----3--3--3---1-1-1---1-1-1--|
E|-------------------------------1--1----1--1--1------------------|

Pre chorus:
e|---------------------------|
B|---------------------------|
G|-3---5-------3--5----------|
D|-3---5---3---3--5---3------|
A|-1---3---3---1--3---3------|
E|---------1----------1------|

Chorus:
e|----------------------------------------------------------------|
B|----------------------------------------------------------------|
G|--------5----3-3-3-3----------5---3----7---5---3-------5---3----|
D|--3-----5----3-3-3-3-----3----5---3----7---5---3---3---5---3----|
A|--3-----3----1-1-1-1-----3----3---1----5---3---1---3---3---1----|
E|--1----------------------1-------------------------1------------|

Bridge: We all have teeth that can bite underneath where the reality...
e|--------------------------------------|
B|--------------------------------------|
G|--7-----3----------7----3-------------|
D|--7-----3-----3----7----3-----3-------|
A|--5-----1-----3----5----1-----3-------|
E|--------------1---------------1-------|

there is a minor second guitar part, but this tab will do just fine

            
            
Suggest correction
Creating personal tab
Creating personal tab
You can edit any tab online and save it as your Personal.

You can edit, replace or remove any tab part or add personal notes – all changes will be seen only by you.

Personal tabs can be accessed anytime from any device, even offline.
Learn more »
Give kudos to tab author, rate the tab!
1 2 3 4 5
comments
print report bad tab
2 comments total.
-1 reply
halftempted 10 Aug 16, 2006 03:05 PM

Dude why did you make another one when his was 100%? And yours don't even have a second guitar

0 reply
TheFairyQueen 31 Mar 24, 2012 12:25 PM

Nearly perfect, a few things I'd fiddle with so it sounds 100% though. The other guy's is wrong though,s o halftempted is wrong about that.

guest
You may want to rate the tab now too:
select rating
Wanna post a correction for this tab? Suggest correction