Oops, an error
Loading. Please wait.

Curse Of Curves tab

version 3
version 3

Whole song

Interactive

2,091 views 9 this week
6 commentsread comments
1 2 3 4 5
x 6
add to favorites
×
Save as Personal and add changes to this tab that will be seen only by you. Learn more ›
×
You can save this tab as Personal to edit and correct it or add notes. All changes will be seen only by you. Learn more »
launch autoscroll
font size
0
reset
how to read this tab
guitar tuner
edit
Autoscroll
slow
fast
+/-
esc
set tempo
stop
Author
Difficulty

  ----------
   Guitar 1
  ----------

VERSE

 (play 3x)
e|-------------------------------------------------------------------------------|
B|-------------------------------------------------------------------------------|
G|-7-7-7-7-7-7-7-7---5-5-5-5-5-5-5-5---10-10-10-10-10-10-10-10---3-3-3-3-3-3-3-3-| 
D|-7-7-7-7-7-7-7-7---5-5-5-5-5-5-5-5---10-10-10-10-10-10-10-10---3-3-3-3-3-3-3-3-|   
A|-5-5-5-5-5-5-5-5---3-3-3-3-3-3-3-3----8--8--8--8--8--8--8--8---1-1-1-1-1-1-1-1-|
E|-------------------------------------------------------------------------------|  


e|------------------------------------------------------------------------------------|
B|------------------------------------------------------------------------------------|
G|-7-7-7-7-7-7-7-7---5-5-5-5-5-5-5-5---10-10-10-10-10-10-10-10-10-10-10-10-10-10-10-10|
D|-7-7-7-7-7-7-7-7---5-5-5-5-5-5-5-5---10-10-10-10-10-10-10-10-10-10-10-10-10-10-10-10|
A|-5-5-5-5-5-5-5-5---3-3-3-3-3-3-3-3----8--8--8--8--8--8--8--8--8--8--8--8--8--8--8--8|
E|------------------------------------------------------------------------------------|

PRE-CHORUS

e|-------------------|
B|-------------------|
G|-3--5-------3--5---|
D|-3--5--3----3--5--3|
A|-1--3--3----1--3--3|
E|-------1----------1|

CHORUS

 (play 2x) 
e|---------------------------------------------------------------------|
B|---------------------------------------------------------------------|
G|-3-3-3-3-3-3-3-3---5-5-5-5-5-5-5-5-----------------------------------|
D|-3-3-3-3-3-3-3-3---5-5-5-5-5-5-5-5---3-3-3-3-3-3-3-3-3-3-3-3-3-3-3-3-|
A|-1-1-1-1-1-1-1-1---3-3-3-3-3-3-3-3---3-3-3-3-3-3-3-3-3-3-3-3-3-3-3-3-|
E|-------------------------------------1-1-1-1-1-1-1-1-1-1-1-1-1-1-1-1-|

VERSE

 (play 2x)
e|--------------------------------------------------------|
B|--------------------------------------------------------|
G|-7-7--7-7-7---5-5--5-5-5---10-10--10-10-10---3-3--3-3-3-|
D|-7-7--7-7-7---5-5--5-5-5---10-10--10-10-10---3-3--3-3-3-|
A|-5-5--5-5-5---3-3--3-3-3----8--8---8--8--8---1-1--1-1-1-|
E|--------------------------------------------------------|


e|-------------------------------------------------------------------------------|
B|-------------------------------------------------------------------------------|
G|-7-7-7-7-7-7-7-7---5-5-5-5-5-5-5-5---10-10-10-10-10-10-10-10---3-3-3-3-3-3-3-3-|
D|-7-7-7-7-7-7-7-7---5-5-5-5-5-5-5-5---10-10-10-10-10-10-10-10---3-3-3-3-3-3-3-3-|
A|-5-5-5-5-5-5-5-5---3-3-3-3-3-3-3-3----8--8--8--8--8--8--8--8---1-1-1-1-1-1-1-1-|
E|-------------------------------------------------------------------------------|


e|------------------------------------------------------------------------------------|
B|------------------------------------------------------------------------------------|
G|-7-7-7-7-7-7-7-7---5-5-5-5-5-5-5-5---10-10-10-10-10-10-10-10-10-10-10-10-10-10-10-10|
D|-7-7-7-7-7-7-7-7---5-5-5-5-5-5-5-5---10-10-10-10-10-10-10-10-10-10-10-10-10-10-10-10|
A|-5-5-5-5-5-5-5-5---3-3-3-3-3-3-3-3----8--8--8--8--8--8--8--8--8--8--8--8--8--8--8--8|
E|------------------------------------------------------------------------------------|

PRE-CHORUS

e|-------------------|
B|-------------------|
G|-3--5-------3--5---|
D|-3--5--3----3--5--3|
A|-1--3--3----1--3--3|
E|-------1----------1|

CHORUS
  
 (play 2x)
e|---------------------------------------------------------------------|
B|---------------------------------------------------------------------|
G|-------------------5-5-5-5-5-5-5-5---3-3-3-3-3-3-3-3-3-3-3-3-3-3-3-3-|
D|-3-3-3-3-3-3-3-3---5-5-5-5-5-5-5-5---3-3-3-3-3-3-3-3-3-3-3-3-3-3-3-3-|
A|-3-3-3-3-3-3-3-3---3-3-3-3-3-3-3-3---1-1-1-1-1-1-1-1-1-1-1-1-1-1-1-1-|
E|-1-1-1-1-1-1-1-1-----------------------------------------------------|

 (play 2x)
e|---------------------------------------------------------------------|
B|---------------------------------------------------------------------|
G|-7-7-7-7-7-7-7-7---5-5-5-5-5-5-5-5---3-3-3-3-3-3-3-3-3-3-3-3-3-3-3-3-|
D|-7-7-7-7-7-7-7-7---5-5-5-5-5-5-5-5---3-3-3-3-3-3-3-3-3-3-3-3-3-3-3-3-|
A|-5-5-5-5-5-5-5-5---3-3-3-3-3-3-3-3---1-1-1-1-1-1-1-1-1-1-1-1-1-1-1-1-|
E|---------------------------------------------------------------------|

BRIDGE

 (play 4x)
e|-----------------------------------------------------|
B|-----------------------------------------------------|
G|-7-7-7-7-7-7-7-7---3-3-3-3-3-3-3-3-------------------|
D|-7-7-7-7-7-7-7-7---3-3-3-3-3-3-3-3---3-3-3-3-3-3-3-3-|
A|-5-5-5-5-5-5-5-5---1-1-1-1-1-1-1-1---3-3-3-3-3-3-3-3-|
E|-------------------------------------1-1-1-1-1-1-1-1-|


PRE-CHORUS

e|-------------------|
B|-------------------|
G|-3--5-------3--5---|
D|-3--5--3----3--5--3|
A|-1--3--3----1--3--3|
E|-------1----------1|

Chorus

(play 2x)
e|---------------------------------------------------------------------|
B|---------------------------------------------------------------------|
G|-------------------5-5-5-5-5-5-5-5---3-3-3-3-3-3-3-3-3-3-3-3-3-3-3-3-|
D|-3-3-3-3-3-3-3-3---5-5-5-5-5-5-5-5---3-3-3-3-3-3-3-3-3-3-3-3-3-3-3-3-|
A|-3-3-3-3-3-3-3-3---3-3-3-3-3-3-3-3---1-1-1-1-1-1-1-1-1-1-1-1-1-1-1-1-|
E|-1-1-1-1-1-1-1-1-----------------------------------------------------|

 (play 2x)
e|---------------------------------------------------------------------|
B|---------------------------------------------------------------------|
G|-7-7-7-7-7-7-7-7---5-5-5-5-5-5-5-5---3-3-3-3-3-3-3-3-3-3-3-3-3-3-3-3-|
D|-7-7-7-7-7-7-7-7---5-5-5-5-5-5-5-5---3-3-3-3-3-3-3-3-3-3-3-3-3-3-3-3-|
A|-5-5-5-5-5-5-5-5---3-3-3-3-3-3-3-3---1-1-1-1-1-1-1-1-1-1-1-1-1-1-1-1-|
E|---------------------------------------------------------------------|

END NOTES

e|------------|
G|------------|
B|-3---5------|
D|-3---5---3--|
A|-1---3---3--|
E|---------1--|


    -----------
      Guitar 2
    -----------

VERSE

 (play 3x)
e|-------------------------------------------------------------------------------|
B|-------------------------------------------------------------------------------|
G|-7-7-7-7-7-7-7-7---5-5-5-5-5-5-5-5---10-10-10-10-10-10-10-10---3-3-3-3-3-3-3-3-| 
D|-7-7-7-7-7-7-7-7---5-5-5-5-5-5-5-5---10-10-10-10-10-10-10-10---3-3-3-3-3-3-3-3-|   
A|-5-5-5-5-5-5-5-5---3-3-3-3-3-3-3-3----8--8--8--8--8--8--8--8---1-1-1-1-1-1-1-1-|
E|-------------------------------------------------------------------------------|  


e|------------------------------------------------------------------------------------|
B|------------------------------------------------------------------------------------|
G|-7-7-7-7-7-7-7-7---5-5-5-5-5-5-5-5---10-10-10-10-10-10-10-10-10-10-10-10-10-10-10-10|
D|-7-7-7-7-7-7-7-7---5-5-5-5-5-5-5-5---10-10-10-10-10-10-10-10-10-10-10-10-10-10-10-10|
A|-5-5-5-5-5-5-5-5---3-3-3-3-3-3-3-3----8--8--8--8--8--8--8--8--8--8--8--8--8--8--8--8|
E|------------------------------------------------------------------------------------|

PRE-CHORUS

 (play 8x)
e|---6-9-6----5-----5-|
B|-8--------8---8-8---|
G|--------------------|
D|--------------------|
A|--------------------|
E|--------------------|

CHORUS

 (play 2x) 
e|---------------------------------------------------------------------|
B|---------------------------------------------------------------------|
G|-3-3-3-3-3-3-3-3---5-5-5-5-5-5-5-5-----------------------------------|
D|-3-3-3-3-3-3-3-3---5-5-5-5-5-5-5-5---3-3-3-3-3-3-3-3-3-3-3-3-3-3-3-3-|
A|-1-1-1-1-1-1-1-1---3-3-3-3-3-3-3-3---3-3-3-3-3-3-3-3-3-3-3-3-3-3-3-3-|
E|-------------------------------------1-1-1-1-1-1-1-1-1-1-1-1-1-1-1-1-|

VERSE

 (play 2x)
e|--------------------------------------------------------|
B|--------------------------------------------------------|
G|-7-7--7-7-7---5-5--5-5-5---10-10--10-10-10---3-3--3-3-3-|
D|-7-7--7-7-7---5-5--5-5-5---10-10--10-10-10---3-3--3-3-3-|
A|-5-5--5-5-5---3-3--3-3-3----8--8---8--8--8---1-1--1-1-1-|
E|--------------------------------------------------------|


e|-------------------------------------------------------------------------------|
B|-------------------------------------------------------------------------------|
G|-7-7-7-7-7-7-7-7---5-5-5-5-5-5-5-5---10-10-10-10-10-10-10-10---3-3-3-3-3-3-3-3-|
D|-7-7-7-7-7-7-7-7---5-5-5-5-5-5-5-5---10-10-10-10-10-10-10-10---3-3-3-3-3-3-3-3-|
A|-5-5-5-5-5-5-5-5---3-3-3-3-3-3-3-3----8--8--8--8--8--8--8--8---1-1-1-1-1-1-1-1-|
E|-------------------------------------------------------------------------------|


e|------------------------------------------------------------------------------------|
B|------------------------------------------------------------------------------------|
G|-7-7-7-7-7-7-7-7---5-5-5-5-5-5-5-5---10-10-10-10-10-10-10-10-10-10-10-10-10-10-10-10|
D|-7-7-7-7-7-7-7-7---5-5-5-5-5-5-5-5---10-10-10-10-10-10-10-10-10-10-10-10-10-10-10-10|
A|-5-5-5-5-5-5-5-5---3-3-3-3-3-3-3-3----8--8--8--8--8--8--8--8--8--8--8--8--8--8--8--8|
E|------------------------------------------------------------------------------------|


PRE-CHORUS

 (play 8x)
e|---6-9-6----5-----5-|
B|-8--------8---8-8---|
G|--------------------|
D|--------------------|
A|--------------------|
E|--------------------|

CHORUS
  
 (play 2x)
e|---------------------------------------------------------------------|
B|---------------------------------------------------------------------|
G|-------------------5-5-5-5-5-5-5-5---3-3-3-3-3-3-3-3-3-3-3-3-3-3-3-3-|
D|-3-3-3-3-3-3-3-3---5-5-5-5-5-5-5-5---3-3-3-3-3-3-3-3-3-3-3-3-3-3-3-3-|
A|-3-3-3-3-3-3-3-3---3-3-3-3-3-3-3-3---1-1-1-1-1-1-1-1-1-1-1-1-1-1-1-1-|
E|-1-1-1-1-1-1-1-1-----------------------------------------------------|

 (play 2x)
e|---------------------------------------------------------------------|
B|---------------------------------------------------------------------|
G|-7-7-7-7-7-7-7-7---5-5-5-5-5-5-5-5---3-3-3-3-3-3-3-3-3-3-3-3-3-3-3-3-|
D|-7-7-7-7-7-7-7-7---5-5-5-5-5-5-5-5---3-3-3-3-3-3-3-3-3-3-3-3-3-3-3-3-|
A|-5-5-5-5-5-5-5-5---3-3-3-3-3-3-3-3---1-1-1-1-1-1-1-1-1-1-1-1-1-1-1-1-|
E|---------------------------------------------------------------------|

BRIDGE

(play 16x)
e|---6-9-6----5-----5-|
B|-8--------8---8-8---|
G|--------------------|
D|--------------------|
A|--------------------|
E|--------------------|

PRE-CHORUS

 (play 8x)
e|---6-9-6----5-----5-|
B|-8--------8---8-8---|
G|--------------------|
D|--------------------|
A|--------------------|
E|--------------------|

FINAL CHORUS / OUTRO

(play 2x)
e|---------------------------------------------------------------------|
B|---------------------------------------------------------------------|
G|-------------------5-5-5-5-5-5-5-5---3-3-3-3-3-3-3-3-3-3-3-3-3-3-3-3-|
D|-3-3-3-3-3-3-3-3---5-5-5-5-5-5-5-5---3-3-3-3-3-3-3-3-3-3-3-3-3-3-3-3-|
A|-3-3-3-3-3-3-3-3---3-3-3-3-3-3-3-3---1-1-1-1-1-1-1-1-1-1-1-1-1-1-1-1-|
E|-1-1-1-1-1-1-1-1-----------------------------------------------------|

 (play through end)
e|---6-9-6----5-----5-|
B|-8--------8---8-8---|
G|--------------------|
D|--------------------|
A|--------------------|
E|--------------------|
Suggest correction
Creating personal tab
Creating personal tab
You can edit any tab online and save it as your Personal.

You can edit, replace or remove any tab part or add personal notes – all changes will be seen only by you.

Personal tabs can be accessed anytime from any device, even offline.
Learn more »
comments
print report bad tab
6 comments total. Showing first comments.
0 reply
Julian K 82 Jan 08, 2007 10:31 AM

wrong, why do people keep tabbing this song, we already have a 100 percent version, some parts are weird as well

0 reply
runninincircls 31 Jan 08, 2007 05:22 PM

I forgot to say mute the verses

0 reply
ihaveatail 40 Jan 12, 2007 03:55 PM

lol.+_+

guest
You may want to rate the tab now too:
select rating
Wanna post a correction for this tab? Suggest correction