Oops, an error
Loading. Please wait.

Doctor bass

version 1
version 1

Whole song

2,408 views 3 this week
2 commentsread comments
1 2 3 4 5
1 last vote to show rating
add to favorites
×
Save as Personal and add changes to this tab that will be seen only by you. Learn more ›
×
You can save this tab as Personal to edit and correct it or add notes. All changes will be seen only by you. Learn more »
launch autoscroll
font size
0
reset
guitar tuner
edit
Autoscroll
slow
fast
+/-
esc
set tempo
stop
Author
-------------------------------------------------------------------------------
			    Doctor - Cute Is What We Aim For
-------------------------------------------------------------------------------

Tabbed By: Valerie L
e-mail: iloled@yahoo.com
Tuning: standard

their new song sounds like lostprophets.

intro 
G|------------3----|
D|-55-5-55--5---5--|
A|-----------------|
E|-----------------|

verse "i'm a looking paramedic..."
G|----------3-------------3---|-----------3-------------3--|-------------|
D|55-5-55-5---5-55-5-55-5---5-|-33-3-33-3---3-33-3-33-3---3|-11-1-11-1-3-|
A|----------------------------|----------------------------|-------------|
E|----------------------------|----------------------------|-------------|

pre-chorus "this emergency...."
G|----------------|
D|-1~---3~---5~---|
A|----------------|
E|----------------| x2

chorus "I'll be your doctor.."
G|----------------------------------------------------------------------|
D|-----------------------------------11111111---------------------3---3-|
A|11111111-33333333---------------------------33333333------------------|
E|------------------3333333333333333-------------------3333333333--33---|

"i'll be your cure.."
G|---------------------|
D|---------------------|
A|-1~--3~--------------|
E|---------3~----------|

verse "i got a secret.."
G|----3--------3----|----3-----|----3-----|
D|-55---53--55---53-|-33---53--|-11---31--| 
A|------------------|----------|----------| 
E|------------------|----------|----------| 

G|----------------------------------------------|
D|-------------------------------------1111111--|
A|----------------------------------------------|
E|3333333333333333333333333333-11111111---------|

pre-chorus "this emergency brought you to me..."
G|-----3---3---------5---5---------7---7---7-5-3|------3--3--------5---5----------------|
D|11-1---1---1--33-3---3---3--55-5---5---5------|-11-1--1---1-33-3---3---3-5555555555555|
A|----------------------------------------------|---------------------------------------|
E|----------------------------------------------|---------------------------------------|

chorus
G|-----------------------------------------------------------------|
D|-------------------------------11111111-----------------55555555-|
A|11111111-33333333-----------------------33333333-----------------|
E|-----------------33333333333333-----------------33333333---------|

G|-------------------------------------------|
D|11111111-33333333-5555555555555555-1~--3~--|
A|-------------------------------------------|
E|-------------------------------------------|

bridge "i'll be, i'll be..."
G|----------------3---------------3---------------3---------------|
D|1/5-55-55-55-55---5-55-55-55-55---5-33-33-33-33--3-11-11-11-1-3-|
A|----------------------------------------------------------------|
E|----------------------------------------------------------------|

G|------------3---------------3---------------3----------------------|
D|55-55-55-55---5-55-55-55-55---5-33-33-33-33--3-11-11-11-1-33333333-|
A|-------------------------------------------------------------------|
E|-------------------------------------------------------------------|

outro chorus "i'll be your doctor..."
G|------------------------------------------------------------------|
D|----------------------------------11111111------------------------|
A|11111111-33333333-------------------------33333333----------------|
E|-----------------3333333333333333-----------------3333333333333333|

G|-------------------------------------------------------|
D|-----------------------------1~---------55555555555555-|
A|1-11-1~--3-33-3~-----------------3~--------------------|
E|------------------3-33-3~-3~---------------------------|

"this is it for me..."
G|---3----5---3---|-----------|
D|55--5-3---3---3-|----3-5~---|
A|----------------|-----------|
E|----------------|x3---------|

            
            
Suggest correction
Creating personal tab
Creating personal tab
You can edit any tab online and save it as your Personal.

You can edit, replace or remove any tab part or add personal notes – all changes will be seen only by you.

Personal tabs can be accessed anytime from any device, even offline.
Learn more »
Give kudos to tab author, rate the tab!
1 2 3 4 5
comments
print report bad tab
2 comments total.
0 reply
AndrewWilson 10 Jul 09, 2008 02:25 PM

most of this doesnt even make sense add how many times you play a part

0 reply
dudester410 125 Aug 07, 2008 05:55 PM

Check out My Bass Tab For The Song, ver 2, it was tabbed on an electric guitr but i pplay bass so i have an ear to translate the sounds close enough lol idk if that made sense but i recorded the song, added my guitar and edited to bass simulator and ounded pretty much right on,

guest
You may want to rate the tab now too:
select rating
Wanna post a correction for this tab? Suggest correction