Oops, an error
Loading. Please wait.

Doctor Tab

8,170 views 3 this week
6 commentsread comments
1 2 3 4 5
excellent!
x 4
add to favorites
launch autoscroll
font size
0
reset
how to read this tab
guitar tuner
Autoscroll
slow
fast
+/-
esc
set tempo
stop
Help us to improve Ultimate-Guitar.com Take our survey!
×
Author
Difficulty
intermediate
---------------------------------------------------------------------------
                        Doctor - Cute Is What We Aim For
---------------------------------------------------------------------------
Tabbed by: Michael Villalon
Email: ElementalAwareness8@hotmail.com

Tuning: Standard

INTRO

Guitar 1
|----------------------------------------------------|
|----------------------------------------------------|
|---------3-----5---3--------------------------------|
|---5-5-5---5-3---5---5------------------------------|
|----------------------------------------------------|
|----------------------------------------------------|x4

VERSE 

Guitar 1
|----------------------------------------------------|
|----------------------------------------------------|
|---------3-----5---3--------------------------------|
|---5-5-5---5-3---5---5------------------------------|
|----------------------------------------------------|
|----------------------------------------------------|x8

Guitar 2
|-----------------------------------------------------|
|--10\----10\----10\----10------8---------------------|
|--10\----10\----10\--------10----7-------------------|
|-----------------------------------------------------|
|-----------------------------------------------------|
|-----------------------------------------------------|x2

INTERLUDE 

Guitar 1
|------------------------------------------|
|----------0~------------0~----------------|
|--7~--5~--0~----3~--5~--0~----------------|
|--5~--5~--5~----3~--5~--5~----------------|
|--5~--3~--2~----5~--3~--2~----------------|
|------------------------------------------|


Guitar 2 (This is optional, sounds good)
|-------------------------------------|
|-------------------------------------|
|--7-5-5\4---3-5-5\4------------------|
|--x-x-x-x---x-x-x-x------------------|
|--5-3-3\2---1-3-3\2------------------|
|-------------------------------------|

CHORUS 

Guitar 1 & 2
The notes on the LOW E string don’t really have to be played but sounds better.
|-------------------------------------------------------|
|-------------------------------------------------------|
|---77777777--1010101010101010--55555555-55555555-------|
|---55555555---8-8-8-8-8-8-8-8--55555555-55555555-------|
|---55555555---8-8-8-8-8-8-8-8--33333333-33333333-------|
|---33333333---6-6-6-6-6-6-6-6--33333333-33333333-------|

|-----------------------------------------------------|
|-----------------------00000000-00000000-------------|
|---77777777--55555555--00000000-00000000-------------|
|---55555555--55555555--55555555-55555555-------------|
|---55555555--33333333--22222222-22222222-------------|
|---33333333--33333333--33333333-33333333-------------|

|-------------------------------------------------------|
|-------------------------------------------------------|
|---77777777--1010101010101010--55555555-55555555-------|
|---55555555---8-8-8-8-8-8-8-8--55555555-55555555-------|
|---55555555---8-8-8-8-8-8-8-8--33333333-33333333-------|
|---33333333---6-6-6-6-6-6-6-6--33333333-33333333-------|

|--------------------------------|
|-----------------0~-------------|
|---7~-----5~-----0~-------------|
|---5~-----5~-----5~-------------|
|---5~-----3~-----2~-------------|
|---3~-----3~-----3~-------------|

VERSE 

Guitar 1
|----------------------------------------------------|
|----------------------------------------------------|
|---------3-----5---3--------------------------------|
|---5-5-5---5-3---5---5------------------------------|
|----------------------------------------------------|
|----------------------------------------------------|x8

Guitar 2 (Comes in when guitar 1 plays the 5th to 8th time)
|-----------------------------------------------------|
|--10\----10\----10\----10------8---------------------|
|--10\----10\----10\--------10----7-------------------|
|-----------------------------------------------------|
|-----------------------------------------------------|
|-----------------------------------------------------|x1

INTERLUDE 

Guitar 1
|------------------------------------------|
|----------0~------------0~----------------|
|--7~--5~--0~----3~--5~--0~----------------|
|--5~--5~--5~----3~--5~--5~----------------|
|--5~--3~--2~----5~--3~--2~----------------|
|------------------------------------------|


Guitar 2 (Again, optional)
|-------------------------------------|
|-------------------------------------|
|--7-5-5\4---3-5-5\4------------------|
|--x-x-x-x---x-x-x-x------------------|
|--5-3-3\2---1-3-3\2------------------|
|-------------------------------------|

CHORUS 

Guitar 1 & 2
Again, the notes on the LOW E string don’t have to be played
|-------------------------------------------------------|
|-------------------------------------------------------|
|---77777777--1010101010101010--55555555-55555555-------|
|---55555555---8-8-8-8-8-8-8-8--55555555-55555555-------|
|---55555555---8-8-8-8-8-8-8-8--33333333-33333333-------|
|---33333333---6-6-6-6-6-6-6-6--33333333-33333333-------|

|-----------------------------------------------------|
|-----------------------00000000-00000000-------------|
|---77777777--55555555--00000000-00000000-------------|
|---55555555--55555555--55555555-55555555-------------|
|---55555555--33333333--22222222-22222222-------------|
|---33333333--33333333--33333333-33333333-------------|

|-------------------------------------------------------|
|-------------------------------------------------------|
|---77777777--1010101010101010--55555555-55555555-------|
|---55555555---8-8-8-8-8-8-8-8--55555555-55555555-------|
|---55555555---8-8-8-8-8-8-8-8--33333333-33333333-------|
|---33333333---6-6-6-6-6-6-6-6--33333333-33333333-------|

CHORUS 2nd PART 

Guitar 1
|--------------------------------|
|-----------------0~-------------|
|---7~-----5~-----0~-------------|
|---5~-----5~-----5~-------------|
|---5~-----3~-----2~-------------|
|---3~-----3~-----3~-------------|

Guitar 2

                  [Hold this note until 
                   the next part comes in
                   where Shaant sings “I’ll
                   Be, I’ll be...”]
|-----------------3~---------------|
|-----------------0~---------------|
|---7~-----5~-----0~---------------|
|---5~-----5~----------------------|
|---5~-----3~----------------------|
|---3~-----3~----------------------|


BRIDGE 

Guitar 2
|--3~------5-6-10-8~--10-6~-----------|
|-------------------------------------|
|-------------------------------------|
|-------------------------------------|
|-------------------------------------|
|-------------------------------------| x3

Guitar 1
Comes is when Guitar 2 plays BRIDGE 2nd and 3rd time
|-------------------------------------|
|-------------------------------------|
|--7~----7~---10-10-10~----8~---------|
|--5~----5~---10-10-10~----8~---------|
|--5~----5~----8--8--8~----6~---------|
|-------------------------------------|

|-------------------------------------|
|-------------------------------------|
|--7-7---7-7---10-10-10~----8~--------|
|--5-5---5-5---10-10-10~----8~--------|
|--5-5---5-5----8--8--8~----6~--------|
|-------------------------------------|

INTERLUDE 

Guitar 1
|------------------------------------------|
|----------0~------------------------------|
|--7~--5~--0~----3~--5~--------------------|
|--5~--5~--5~----3~--5~--------------------|
|--5~--3~--2~----5~--3~--------------------|
|------------------------------------------|

CHORUS 

Guitar 1 & 2
Again, the notes on the LOW E string don’t have to be played
|-------------------------------------------------------|
|-------------------------------------------------------|
|---77777777--1010101010101010--55555555-55555555-------|
|---55555555---8-8-8-8-8-8-8-8--55555555-55555555-------|
|---55555555---8-8-8-8-8-8-8-8--33333333-33333333-------|
|---33333333---6-6-6-6-6-6-6-6--33333333-33333333-------|

|-----------------------------------------------------|
|-----------------------00000000-00000000-------------|
|---77777777--55555555--00000000-00000000-------------|
|---55555555--55555555--55555555-55555555-------------|
|---55555555--33333333--22222222-22222222-------------|
|---33333333--33333333--33333333-33333333-------------|

|--------------------------------------------------|
|--------------------------------------------------|
|---7-7-7-7--10-10-10-10---5-5-5-5--5-5-5-5--------|
|---5-5-5-5---8--8--8--8---5-5-5-5--5-5-5-5--------|
|---5-5-5-5---8--8--8--8---3-3-3-3--3-3-3-3--------|
|---3-3-3-3---6--6--6--6---3-3-3-3--3-3-3-3--------|

|--------------------------------|
|-----------------0~-------------|
|---7~-----5~-----0~-------------|
|---5~-----5~-----5~-------------|
|---5~-----3~-----2~-------------|
|---3~-----3~-----3~-------------|

OUTRO 
Guitar 1
PALM MUTE
|----------------------------------------------------|
|----------------------------------------------------|
|---------3-----5---3--------------------------------|
|---5-5-5---5-3---5---5------------------------------|
|----------------------------------------------------|
|----------------------------------------------------|x4

PLAY NORMAL, SAME AS INTRO/VERSE
|----------------------------------------------------|
|----------------------------------------------------|
|---------3-----5---3--------------------------------|
|---5-5-5---5-3---5---5------------------------------|
|----------------------------------------------------|
|----------------------------------------------------|x4


| /  slide up
| \  slide down
| h  hammer-on
| p  pull-off
| ~  vibrato
| +  harmonic
| x  Mute note
============================================================================
Suggest correction
comments
print report bad tab
6 comments total. Showing first comments.
0 reply
MichaelVillalon 72 wrote on April 25 2008, 09:47 pm

Just to let you know, you can drop D it and u can play the chorus easier that way... it's really up to you.

0 reply
JessicaGonzo 211 wrote on April 26 2008, 08:31 pm

Damn you tabbed it out in less than a week.

0 reply
halftempted 10 wrote on June 23 2008, 12:58 pm

Its not bad but the chorus is wrong.

It sounds more like this
|-------------------------------------------------------|
|-------------------------------------------------------|
|---33333333---555555555555555--------------------------|
|---33333333---555555555555555--55555555-55555555-------|
|---11111111---333333333333333--55555555-55555555-------|
|-------------------------------33333333-33333333-------|

guest
You may want to rate the tab now too:
select rating
Please do not post tabs as comments. Select "correction" instead!