Oops, an error
Loading. Please wait.

Hipbones And Microphones bass

380 views 1 this week
no commentswrite comment
1 2 3 4 5
2 more votes to show rating
add to favorites
×
Save as Personal and add changes to this tab that will be seen only by you. Learn more ›
×
You can save this tab as Personal to edit and correct it or add notes. All changes will be seen only by you. Learn more »
launch autoscroll
font size
0
reset
guitar tuner
edit
Autoscroll
slow
fast
+/-
esc
set tempo
stop
Author
Difficulty
-------------------------------------------------------------------------------
	         Hipbones and microphones - Cute is what we aim for
-------------------------------------------------------------------------------

Tabbed By : shooshi123
e-mail: shooshi_123@hotmail.co.uk

Tuning: Standard

I tabbed a (rough) version of the guitar tab, and now i couldn't resist to tab the bass parts.
Its pretty basic to play, if your stuck for timing just listen to the song.
I think its almost 100% there, but then you may beg to differ. Comments and Corrections, 
type away xD

Intro/Verse

G|--------------------------------------------------|
D|--------------------------------------------------|
A|--------------------------------------------------|X6
E|--12~----10~----7~-----5~-------------------------|


"Give Them hell..."

G|-------------------------------------------------------------|
D|-------------------------------------------------------------|
A|-------------------------------------------------------------|
E|---3~-3~-3~-3~--10-10-10-5-5-5~---3~-3~-3~-3~--5-5-5-5-5-5---|


"Chatting way out on display..."

G|-------------------------------------------------------------------------|
D|-------------------------------------------------------------------------|
A|-------------------------------------------------------------------------|
E|----7-7---7-7-7---7-10-10---10-10-10---10-3-3---3-3-3---3-5-5---5-5------|X2


"Out on display..."

G|---------------------------------------------------|
D|---------------------------------------------------|
A|---------------------------------------------------|
E|---7~--5~--3~--2~----------------------------------|


"Next comes the photoshop..."

G|--------------------------------------------------|
D|--------------------------------------------------|
A|--------------------------------------------------|X4
E|--12~----10~----7~-----5~-------------------------|


"Give Them hell..."

G|-------------------------------------------------------------|
D|-------------------------------------------------------------|
A|-------------------------------------------------------------|
E|---3~-3~-3~-3~--10-10-10-5-5-5~---3~-3~-3~-3~--5-5-5-5-5-5---|


"Chatting way out on display..."

G|-------------------------------------------------------------------------|
D|-------------------------------------------------------------------------|
A|-------------------------------------------------------------------------|
E|----7-7---7-7-7---7-10-10---10-10-10---10-3-3---3-3-3---3-5-5---5-5------|X2


"La la la la lavish lifestyle..."

G|-------------------------------------------------------------------------|
D|-------------------------------------------------------------------------|
A|-------------------------------------------------------------------------|
E|----7-7---7-7-7---7-10-10---10-10-10---10-3-3---3-3-3---3-5-5---5-5------|X4


"Chatting way out on display..." (Breakdown kinda bit...gets quiet)

G|-----------------------------------------------------------|
D|-----------------------------------------------------------|
A|-----------------------------------------------------------|
E|--3~---5~---7~---10~---3~---5~---7~---10~---3~---5~--------|


"Hipbones and microphones..."

G|-------------------------------------------------------------------------|
D|-------------------------------------------------------------------------|
A|-------------------------------------------------------------------------|
E|----7-7---7-7-7---7-10-10---10-10-10---10-3-3---3-3-3---3-5-5---5-5------|X4


End On and hold :)

G|-------------------------------------------------------------------------------|
D|-------------------------------------------------------------------------------|
A|-------------------------------------------------------------------------------|
E|---7~--------------------------------------------------------------------------|


NOTE: The first two notes of the 3rd "chatting way on display" come in just before when 
sings "lifestyle."
Trust me listen to the song and it sounds correct.


| /  slide up
| \  slide down
| h  hammer-on
| p  pull-off
| ~  vibrato
| +  harmonic
| x  Mute note
===============================================================================

Lyrics.

Your face is a bit too Myspace
For my taste
And sadly this is a new but classic
Classic case

Give them hell with that HTML
Give them hell...

Chatting way out on display
They remember the things that I say
Are my jeans too tight?
Does my blazer blaze?
Chatting way
Out on display

Next comes the photoshop
To crop and cut
To show those strangers just what
You've been covered and covering up
The shudder speed and the lighting that you need

Give them hell with that HTML
Give them hell
Chatting way out on display
They remember the things that I say
Are my jeans too tight?
Does my blazer blaze?
Chatting way
Out on display

La la la la lavish
Lifestyle
La la la la lavish
Lifestyle
La la la la lavish
Mystyle
La la la la lavish
Lifestyle

Chatting way out on display
They remember the things that I say
Are my jeans too tight?
Does my blazer blaze?

Hipbones and microphones
Make my world go round and you know
The microphones have got a mind of their own
Now the whole world
Now the whole world knows

            
            
Suggest correction
Creating personal tab
Creating personal tab
You can edit any tab online and save it as your Personal.

You can edit, replace or remove any tab part or add personal notes – all changes will be seen only by you.

Personal tabs can be accessed anytime from any device, even offline.
Learn more »
Give kudos to tab author, rate the tab!
1 2 3 4 5
comments
print report bad tab
guest
You may want to rate the tab now too:
select rating
Wanna post a correction for this tab? Suggest correction