Oops, an error
Loading. Please wait.

Hipbones And Microphones Tab

version 1
version 1

Whole song

1,388 views 1 this week
6 commentsread comments
1 2 3 4 5
accurate
x 3
add to favorites
launch autoscroll
font size
0
reset
how to read this tab
guitar tuner
Tab Pro tools
  • play this tab
  • loop segment
  • change instrument
  • show fretboard
  • metronome
×
Best way to learn
"Hipbones And Microphones"
Autoscroll
slow
fast
+/-
esc
set tempo
stop
Contributor
Difficulty
novice
"Hipbones and Microphones" is the newest Cute Is What We Aim For song so I hope you like 
tabs!

Main Picking:
E----------------------------------------/
B----------------------------------------/
G---------12----11-------------7-----6---/   x6
D----------------------------------------/
A----------------------------------------/
E------12------------------7-------------/

Bridge/Chorus Part:
Give them hell...
E----------------------------------------|
B----------------------------------------|
G-----7-----9---9-----7----9-9-9-9-------|
D----------------------------------------|
A----------------------------------------|
E-----7-----9---9-----7----9-9-9-9-------|

Chatting way out...

E---------------------------------------------|
B---------------------------------------------|
G---7-7--777--7----9-9--999--9----7-7--777--7-|   Same chords throughout the
D---------------------------------------------|   chorus.
A---------------------------------------------|
E---7-7--777--7----9-9--999--9----7-7--777--7-|
comments
We did not receive enough feedback on this tab! Please rate:
print report bad tab
1 2 3 4 5
6 comments total. Showing first comments.
0 reply
Hairball135 wrote on December 15 2007, 12:16 pm

dude you into is off and
its
E----------------------------------------/
B----------------------------------------/
G---------12----10---------
----7-----5---/
x6
D----------------------------------------/
A----------------------------------------/
E------12-------12----------
7--------7---/

and the chords need work so this is definently not a 5 star ill tab out my way and ill but it up

+2 reply
Hairball135 wrote on December 15 2007, 12:17 pm

E-----/
B-----/
G-----12----11-----7
-----6---/
x6
D-----/
A-----/
E-----12-----12-----
7-----7----/

srry the last one was all messed up

+2 reply
Hairball135 wrote on December 15 2007, 12:17 pm

y wont this work ill just tab it out

I want to post or [tab]
guest
You may want to rate the tab now too:
select rating
Please do not post tabs as comments. Select "correction" instead!