Oops, an error
Loading. Please wait.

I Put The Metro In Metronome bass

version 1
version 1

Whole song

558 views 3 this week
no commentswrite comment
1 2 3 4 5
2 more votes to show rating
add to favorites
×
Save as Personal and add changes to this tab that will be seen only by you. Learn more ›
×
You can save this tab as Personal to edit and correct it or add notes. All changes will be seen only by you. Learn more »
launch autoscroll
font size
0
reset
guitar tuner
edit
Autoscroll
slow
fast
+/-
esc
set tempo
stop
Author
Difficulty
Artist: Cute Is What We Aim For
Bassist: Fred Cimato
Song: I Put The 'Metro' In Metronome
Album: The Same Old Bloodrush With A New Touch
Tabbed By: Lewis [lewis_mason21@hotmail.com]

Key:
~: Let Note Ring
/: Slide Up
s: Stop Note Dead
x: Mute Note

[Tuning: Standard - E,A,D,G]

Verse One: [Note: It may take a small bit of practice to get the rhythm!]
("I'm gonna make sure" ... "I'm not buying it")
G|---------------------------------------------------------------------|
D|---------------------------------------------------------------------|
A|---------------------------------------------------------------------|
E|-44444-44-4444444-22222-22-2222222-00000-00-0000000-22222-22-2222222-| [x2]


Pre-Chorus One:
("Style doesn't matter" ... "Your clothes won't fit the season")
G|----------------------------|
D|----------------------------|
A|----------------------------|
E|-4~---0~---22-222-222-222-2-| [x2]

G|------------------|
D|------------------|
A|------------------|
E|-222222222222-2-2-|


Chorus:
("Uptown girls" ... "Has got the best of me")
G|---------------------------------------------------------------------|
D|---------------------------------------------------------------------|
A|---------------------------------------------------------------------|
E|-2222222222222222-0000000000000000-4444444422222222-0000000000000000-| [x2]


Verse Two: [Note: Once again, practice with the rhythm!  Remember to stop those two notes!]
("My door was locked" ... "I just dent them")
G|---------------------------------------------------------------------|
D|---------------------------------------------------------------------|
A|----------------------------------------------------2-2-2222-222-2-2-|
E|-4-4-4444-444-4-4-2-2-2222-222-2-2-0-0-0000-000-0-0------------------|

G|---------------------------------------------------------------------|
D|---------------------------------------------------------------------|
A|-------------------------------------------2/14~----2-2-2222-222-2-2-|
E|-4s---------------2-2-2222-222-2-2-0s--------------------------------|


Pre-Chorus Two:
("Style doesn't matter" ... "You're cold and that's the reason")
G|----------------------------|
D|----------------------------|
A|----------------------------|
E|-4~---0~---22-222-222-222-2-| [x2]

G|---------------------|
D|---------------------|
A|---------------------|
E|-2222222222222222-0~-|


Chorus:
("Uptown girls" ... "Has got the best of me")
G|---------------------------------------------------------------------|
D|---------------------------------------------------------------------|
A|---------------------------------------------------------------------|
E|-2222222222222222-0000000000000000-4444444422222222-0000000000000000-| [x2]


Bridge: [Note: Remember to mute those two notes at the end!]
("Keeping tempos" ... "Style doesn't matter when you're on your back")
G|---------------------------------------------------------------------|
D|---------------------------------------------------------------------|
A|----------------------------------------------------2-2-2222-222-2-2-|
E|-4-4-4444-444-4-4-2-2-2222-222-2-2-0-0-0000-000-0-0------------------|

G|---------------------------------------------------------------------|
D|---------------------------------------------------------------------|
A|----------------------------------------------------2222222222222222-|
E|-4444444444444444-2222222222222222-0000000000000000------------------|

G|----------------------------|
D|----------------------------|
A|----------------------------|
E|-4~---0~---2222222222222x2x-|


Chorus:
("Uptown girls" ... "Has got the best of me")
G|---------------------------------------------------------------------|
D|---------------------------------------------------------------------|
A|---------------------------------------------------------------------|
E|-2222222222222222-0000000000000000-4444444422222222-0000000000000000-|

G|-------------------------------------------------------|
D|-------------------------------------------------------|
A|-------------------------------------------------------|
E|-2222222222222222-0000000000000000-4444444422222222-0~-|

            
            
Suggest correction
Creating personal tab
Creating personal tab
You can edit any tab online and save it as your Personal.

You can edit, replace or remove any tab part or add personal notes – all changes will be seen only by you.

Personal tabs can be accessed anytime from any device, even offline.
Learn more »
Give kudos to tab author, rate the tab!
1 2 3 4 5
comments
print report bad tab
guest
You may want to rate the tab now too:
select rating
Wanna post a correction for this tab? Suggest correction