Oops, an error
Loading. Please wait.

Lyrical Lies tab

version 2
version 2

Whole song

Interactive

77,021 views 33 this week
21 commentsread comments
1 2 3 4 5
x 42
add to favorites
×
Save as Personal and add changes to this tab that will be seen only by you. Learn more ›
×
You can save this tab as Personal to edit and correct it or add notes. All changes will be seen only by you. Learn more »
launch autoscroll
font size
0
reset
how to read this tab
guitar tuner
edit
Autoscroll
slow
fast
+/-
esc
set tempo
stop
Author
Difficulty
-------------------------------------------------------------------------------
                             LYRICAL LIES - Cute Is What We Aim For
-------------------------------------------------------------------------------
Tabbed by: Jon Klein
Email: jcklein86@hotmail.com

Tuning: Standard

I couldn't find this song anywhere on the internet besides a couple sites and they had some
of the chords wrong and stuff so I tabbed it myself.  I think I got it all right but if I didn't
sorry.  If you find any corrections e-mail me at jcklein86@hotmail.com and I'll change it.


Lyrical Lies


Intro:
e---------------------------------------------------------------------|
B---------------------------------------------------------------------|
G-7-4~-2-6~-7-4~-2-6~-------------------------------------------------|
D-0-0~-0-0~-0-0~-0-0~-------------------------------------------------|
A-x-x~-x-x~-x-x~-x-x~-------------------------------------------------|
E-7-3~-2-5~-7-3~-2-5~-------------------------------------------------|

Verse 1:
e---------------------------------------------------------------------|
B---------------------------------------------------------------------|
G-7-4~-2-6~-7-4~-2-6~-7-6~-7-4~-2-6~-7-4~-2-6~-7-6~-------------------|
D-0-0~-0-0~-0-0~-0-0~-0-0~-0-0~-0-0~-0-0~-0-0~-0-0~-------------------|
A-x-x~-x-x~-x-x~-x-x~-x-x~-x-x~-x-x~-x-x~-x-x~-x-x~-------------------|
E-7-3~-2-5~-7-3~-2-5~-5-5~-7-3~-2-5~-7-3~-2-5~-5-5~-------------------|

e---------------------------------------------------------------------|
B---------------------------------------------------------------------|
G-4-4-4-4-4-4-4-4-4-4-6-6-6-6-6-6-4-4-4-4-4-4-4-4-4-4-4-6-6-6-6-6-6---|
D-0-0-0-0-0-0-0-0-0-0-0-0-0-0-0-0-0-0-0-0-0-0-0-0-0-0-0-0-0-0-0-0-0---|
A-x-x-x-x-x-x-x-x-x-x-x-x-x-x-x-x-x-x-x-x-x-x-x-x-x-x-x-x-x-x-x-x-x---|
E-3-3-3-3-3-3-3-3-3-3-5-5-5-5-5-5-3-3-3-3-3-3-3-3-3-3-3-5-5-5-5-5-5---|

e---------------------------------------------------------------------|
B---------------------------------------------------------------------|
G-7-7-7-4~-4-4-4-2-2-2-6~-6-6-6-7-7-7-4~-4-4-4-2-2-2-6~-6-6-6~--------|
D-0-0-0-0~-0-0-0-0-0-0-0~-0-0-0-0-0-0-0~-0-0-0-0-0-0-0~-0-0-0---------|
A-x-x-x-x~-x-x-x-x-x-x-x~-x-x-x-x-x-x-x~-x-x-x-x-x-x-x~-x-x-x---------|
E-7-7-7-3~-3-3-3-2-2-2-5~-5-5-5-7-7-7-7~-3-3-3-2-2-2-2~-5-5-5~--------|

e---------------------------------------------------------------------|
B---------------------------------------------------------------------|
G-7-7-7-4~-4-4-4-2-2-2-6~-6-6-6-7-7-7-4~-4-4-4-2-2-2-6~-6-6-6~--------|
D-0-0-0-0~-0-0-0-0-0-0-0~-0-0-0-0-0-0-0~-0-0-0-0-0-0-0~-0-0-0---------|
A-x-x-x-x~-x-x-x-x-x-x-x~-x-x-x-x-x-x-x~-x-x-x-x-x-x-x~-x-x-x---------|
E-7-7-7-3~-3-3-3-2-2-2-5~-5-5-5-7-7-7-7~-3-3-3-2-2-2-2~-5-5-5~--------|

Pre-Chorus:
e---------------------------------------------------------------------|
B---------------------------------------------------------------------|
G-4-4-4-4-4-4-4-4-4-4-6-6-6-6-6-6-4-4-4-4-4-4-4-4-4-4-6-6-6-6-6-6-----|
D-0-0-0-0-0-0-0-0-0-0-0-0-0-0-0-0-0-0-0-0-0-0-0-0-0-0-0-0-0-0-0-0-----|
A-x-x-x-x-x-x-x-x-x-x-x-x-x-x-x-x-x-x-x-x-x-x-x-x-x-x-x-x-x-x-x-x-----|
E-3-3-3-3-3-3-3-3-3-3-5-5-5-5-5-5-3-3-3-3-3-3-3-3-3-3-5-5-5-5-5-5-----|

Chorus:
e---------------------------------------------------------------------|
B---------------------------------------------------------------------|
G-7-7-7-7-7-7-7-7-6-6-6-6-6-6-6-6-4-4-4-4-4-4-4-4-4-4-6-6-6-6-6-6-----|
D-0-0-0-0-0-0-0-0-0-0-0-0-0-0-0-0-0-0-0-0-0-0-0-0-0-0-0-0-0-0-0-0-----|
A-x-x-x-x-x-x-x-x-x-x-x-x-x-x-x-x-x-x-x-x-x-x-x-x-x-x-x-x-x-x-x-x-----|
E-7-7-7-7-7-7-7-7-5-5-5-5-5-5-5-5-3-3-3-3-3-3-3-3-3-3-3-5-5-5-5-5-----|

e---------------------------------------------------------------------|
B---------------------------------------------------------------------|
G-7-7-7-7-7-7-7-7-6-6-6-6-6-6-6-6-4-4-4-4-4-4-4-4-4-4-6-6-6-6-6-6-----|
D-0-0-0-0-0-0-0-0-0-0-0-0-0-0-0-0-0-0-0-0-0-0-0-0-0-0-0-0-0-0-0-0-----|
A-x-x-x-x-x-x-x-x-x-x-x-x-x-x-x-x-x-x-x-x-x-x-x-x-x-x-x-x-x-x-x-x-----|
E-7-7-7-7-7-7-7-7-5-5-5-5-5-5-5-5-3-3-3-3-3-3-3-3-3-3-3-5-5-5-5-5-----|

Verse 2:
e---------------------------------------------------------------------|
B---------------------------------------------------------------------|
G-7-4~-2-6~-7-4~-2-6~-7-6~-7-4~-2-6~-7-4~-2-6~-7-6~-------------------|
D-0-0~-0-0~-0-0~-0-0~-0-0~-0-0~-0-0~-0-0~-0-0~-0-0~-------------------|
A-x-x~-x-x~-x-x~-x-x~-x-x~-x-x~-x-x~-x-x~-x-x~-x-x~-------------------|
E-7-3~-2-5~-7-3~-2-5~-5-5~-7-3~-2-5~-7-3~-2-5~-5-5~-------------------|

e---------------------------------------------------------------------|
B---------------------------------------------------------------------|
G-4-4-4-4-4-4-4-4-4-4-6-6-6-6-6-6-4-4-4-4-4-4-4-4-4-4-4-6-6-6-6-6-6---|
D-0-0-0-0-0-0-0-0-0-0-0-0-0-0-0-0-0-0-0-0-0-0-0-0-0-0-0-0-0-0-0-0-0---|
A-x-x-x-x-x-x-x-x-x-x-x-x-x-x-x-x-x-x-x-x-x-x-x-x-x-x-x-x-x-x-x-x-x---|
E-3-3-3-3-3-3-3-3-3-3-5-5-5-5-5-5-3-3-3-3-3-3-3-3-3-3-3-5-5-5-5-5-5---|

Chorus:
e---------------------------------------------------------------------|
B---------------------------------------------------------------------|
G-7-7-7-7-7-7-7-7-6-6-6-6-6-6-6-6-4-4-4-4-4-4-4-4-4-4-6-6-6-6-6-6-----|
D-0-0-0-0-0-0-0-0-0-0-0-0-0-0-0-0-0-0-0-0-0-0-0-0-0-0-0-0-0-0-0-0-----|
A-x-x-x-x-x-x-x-x-x-x-x-x-x-x-x-x-x-x-x-x-x-x-x-x-x-x-x-x-x-x-x-x-----|
E-7-7-7-7-7-7-7-7-5-5-5-5-5-5-5-5-3-3-3-3-3-3-3-3-3-3-3-5-5-5-5-5-----|

e---------------------------------------------------------------------|
B---------------------------------------------------------------------|
G-7-7-7-7-7-7-7-7-6-6-6-6-6-6-6-6-4-4-4-4-4-4-4-4-4-4-6-6-6-6-6-6-----|
D-0-0-0-0-0-0-0-0-0-0-0-0-0-0-0-0-0-0-0-0-0-0-0-0-0-0-0-0-0-0-0-0-----|
A-x-x-x-x-x-x-x-x-x-x-x-x-x-x-x-x-x-x-x-x-x-x-x-x-x-x-x-x-x-x-x-x-----|
E-7-7-7-7-7-7-7-7-5-5-5-5-5-5-5-5-3-3-3-3-3-3-3-3-3-3-3-5-5-5-5-5-----|

Bridge:
e------------------------------------------------------------------------------|
B------------------------------------------------------------------------------|
G-7-7-7-7-7-7-7-7-4-4-4-4-4-4-4-4-11-11-11-11-11-11-11-11-11-6-6-6-6-6-6-6-6---|
D-0-0-0-0-0-0-0-0-0-0-0-0-0-0-0-0--0--0--0--0--0--0--0--0--0-0-0-0-0-0-0-0-0---|
A-x-x-x-x-x-x-x-x-x-x-x-x-x-x-x-x--x--x--x--x--x--x--x--x--x-x-x-x-x-x-x-x-x---|
E-7-7-7-7-7-7-7-7-3-3-3-3-3-3-3-3-10-10-10-10-10-10-10-10-10-5-5-5-5-5-5-5-5---|

e------------------------------------------------------------------------------|
B------------------------------------------------------------------------------|
G-7-7-7-7-7-7-7-7-4-4-4-4-4-4-4-4-11-11-11-11-11-11-11-11-11-6-6-6-6-6-6-6-6---|
D-0-0-0-0-0-0-0-0-0-0-0-0-0-0-0-0--0--0--0--0--0--0--0--0--0-0-0-0-0-0-0-0-0---|
A-x-x-x-x-x-x-x-x-x-x-x-x-x-x-x-x--x--x--x--x--x--x--x--x--x-x-x-x-x-x-x-x-x---|
E-7-7-7-7-7-7-7-7-3-3-3-3-3-3-3-3-10-10-10-10-10-10-10-10-10-5-5-5-5-5-5-5-5---|

Pre-Chorus:
e---------------------------------------------------------------------|
B---------------------------------------------------------------------|
G-4-4-4-4-4-4-4-4-4-4-6-6-6-6-6-6-4-4-4-4-4-4-4-4-4-4-6-6-6-6-6-6-----|
D-0-0-0-0-0-0-0-0-0-0-0-0-0-0-0-0-0-0-0-0-0-0-0-0-0-0-0-0-0-0-0-0-----|
A-x-x-x-x-x-x-x-x-x-x-x-x-x-x-x-x-x-x-x-x-x-x-x-x-x-x-x-x-x-x-x-x-----|
E-3-3-3-3-3-3-3-3-3-3-5-5-5-5-5-5-3-3-3-3-3-3-3-3-3-3-5-5-5-5-5-5-----|

Chorus:
e---------------------------------------------------------------------|
B---------------------------------------------------------------------|
G-7-7-7-7-7-7-7-7-6-6-6-6-6-6-6-6-4-4-4-4-4-4-4-4-4-4-6-6-6-6-6-6-----|
D-0-0-0-0-0-0-0-0-0-0-0-0-0-0-0-0-0-0-0-0-0-0-0-0-0-0-0-0-0-0-0-0-----|
A-x-x-x-x-x-x-x-x-x-x-x-x-x-x-x-x-x-x-x-x-x-x-x-x-x-x-x-x-x-x-x-x-----|
E-7-7-7-7-7-7-7-7-5-5-5-5-5-5-5-5-3-3-3-3-3-3-3-3-3-3-3-5-5-5-5-5-----|

e---------------------------------------------------------------------|
B---------------------------------------------------------------------|
G-7-7-7-7-7-7-7-7-6-6-6-6-6-6-6-6-4-4-4-4-4-4-4-4-4-4-6-6-6-6-6-6-----|
D-0-0-0-0-0-0-0-0-0-0-0-0-0-0-0-0-0-0-0-0-0-0-0-0-0-0-0-0-0-0-0-0-----|
A-x-x-x-x-x-x-x-x-x-x-x-x-x-x-x-x-x-x-x-x-x-x-x-x-x-x-x-x-x-x-x-x-----|
E-7-7-7-7-7-7-7-7-5-5-5-5-5-5-5-5-3-3-3-3-3-3-3-3-3-3-3-5-5-5-5-5-----|
Suggest correction
Creating personal tab
Creating personal tab
You can edit any tab online and save it as your Personal.

You can edit, replace or remove any tab part or add personal notes – all changes will be seen only by you.

Personal tabs can be accessed anytime from any device, even offline.
Learn more »
comments
print report bad tab
21 comments total. Showing first comments.
+3 reply
Julian K 82 Jul 23, 2006 01:48 PM

sounds awsome great tab

0 reply
iheartmusic53 165 Jul 23, 2006 11:15 PM

woo good job!

0 reply
Supadude 10 Aug 05, 2006 01:01 AM

very nice tab to a very nice song!

guest
You may want to rate the tab now too:
select rating
Wanna post a correction for this tab? Suggest correction