Oops, an error
Loading. Please wait.

Lyrical Lies tab

version 3
version 3

Whole song

Interactive

8,703 views 1 this week
3 commentsread comments
1 2 3 4 5
x 3
add to favorites
×
Save as Personal and add changes to this tab that will be seen only by you. Learn more ›
×
You can save this tab as Personal to edit and correct it or add notes. All changes will be seen only by you. Learn more »
launch autoscroll
font size
0
reset
how to read this tab
guitar tuner
edit
Autoscroll
slow
fast
+/-
esc
set tempo
stop
Difficulty
Song: Lyrical Lies
Band: Cute Is What We Aim For

I'm pretty sure this tab is 100%
just going by a video I saw of them on youtube..

have fun!

Intro:
e---------------------------------------------------------------------|
B---------------------------------------------------------------------|
G-x7-4~-x2-6~-x7-4~-x2-6h7p6~-----------------------------------------|
D-x0-0~-x0-0~-x0-0~-x0-0~---------------------------------------------|
A-xx-x~-xx-x~-xx-x~-xx-x~---------------------------------------------|
E-x7-3~-x2-5~-x7-3~-x2-5~---------------------------------------------|

Verse 1:
e---------------------------------------------------------------------|
B---------------------------------------------------------------------|
G-x7-4~-x2-6~-x7-4~-x2-6h7p6~-x7-6~-x2-6~-x7-4~-x2-6h7p6~-------------|
D-x0-0~-x0-0~-x0-0~-x0-0~-----x0-0~-x0-0~-x0-0~-x0-0~-----------------|
A-xx-x~-xx-x~-xx-x~-xx-x~-----xx-x~-xx-x~-xx-x~-xx-x~-----------------|
E-x7-3~-x2-5~-x7-3~-x2-5~-----x5-5~-x2-5~-x7-3~-x2-5~-----------------|

e-----------------------------------------------------------------------|
B-----------------------------------------------------------------------|
G-4-4-4-4-4-4-4-4-4-4-6-6-6-6-6-6-7-7-4-4-4-4-4-4-4-4-4-4-4-6-6-6-6-6-6-|
D-0-0-0-0-0-0-0-0-0-0-0-0-0-0-0-0-0-0-0-0-0-0-0-0-0-0-0-0-0-0-0-0-0-0-0-|
A-x-x-x-x-x-x-x-x-x-x-x-x-x-x-x-x-x-x-x-x-x-x-x-x-x-x-x-x-x-x-x-x-x-x-x-|
E-3-3-3-3-3-3-3-3-3-3-5-5-5-5-5-5-7-7-3-3-3-3-3-3-3-3-3-3-3-5-5-5-5-5-5-|

e---------------------------------------------------------------------|
B---------------------------------------------------------------------|
G-7-7-7-4-4-4-4-2-2-2-6-6-6-6-7-7-7-4-4-4-4-2-2-2-6-6-6-6-------------|
D-0-0-0-0-0-0-0-0-0-0-0-0-0-0-0-0-0-0-0-0-0-0-0-0-0-0-0-0-------------|
A-x-x-x-x-x-x-x-x-x-x-x-x-x-x-x-x-x-x-x-x-x-x-x-x-x-x-x-x-------------|
E-7-7-7-3-3-3-3-2-2-2-5-5-5-5-7-7-7-7-3-3-3-2-2-2-2-5-5-5-------------|

e---------------------------------------------------------------------|
B---------------------------------------------------------------------|
G-7-7-7-4-4-4-4-2-2-2-6-6-6-6-7-7-7-4-4-4-4-2-2-2-6-6-6-6-------------|
D-0-0-0-0-0-0-0-0-0-0-0-0-0-0-0-0-0-0-0-0-0-0-0-0-0-0-0-0-------------|
A-x-x-x-x-x-x-x-x-x-x-x-x-x-x-x-x-x-x-x-x-x-x-x-x-x-x-x-x-------------|
E-7-7-7-3-3-3-3-2-2-2-5-5-5-5-7-7-7-7-3-3-3-2-2-2-2-5-5-5-------------|

Pre-Chorus:
e---------------------------------------------------------------------|
B---------------------------------------------------------------------|
G-4-4-4-4-4-4-4-4-4-4-6-6-6-6-6-6/7-4-4-4-4-4-4-4-4-4-4-6-6-6-6-6-6---|
D-0-0-0-0-0-0-0-0-0-0-0-0-0-0-0-0-0-0-0-0-0-0-0-0-0-0-0-0-0-0-0-0-0---|
A-x-x-x-x-x-x-x-x-x-x-x-x-x-x-x-x-x-x-x-x-x-x-x-x-x-x-x-x-x-x-x-x-x---|
E-3-3-3-3-3-3-3-3-3-3-5-5-5-5-5-5/7-3-3-3-3-3-3-3-3-3-3-5-5-5-5-5-5---|

Chorus:
e---------------------------------------------------------------------|
B---------------------------------------------------------------------|
G-7-7-7-7-7-7-7-7-6-6-6-6-7-7-6-6-4-4-4-4-4-4-4-4-4-4-6-6-6-6-6-6-----|
D-0-0-0-0-0-0-0-0-0-0-0-0-0-0-0-0-0-0-0-0-0-0-0-0-0-0-0-0-0-0-0-0-----|
A-x-x-x-x-x-x-x-x-x-x-x-x-x-x-x-x-x-x-x-x-x-x-x-x-x-x-x-x-x-x-x-x-----|
E-7-7-7-7-7-7-7-7-5-5-5-5-5-5-5-5-3-3-3-3-3-3-3-3-3-3-3-5-5-5-5-5-----|

e---------------------------------------------------------------------|
B---------------------------------------------------------------------|
G-7-7-7-7-7-7-7-7-6-6-6-6-7-7-6-6-4-4-4-4-4-4-4-4-4-4-6-6-6-6-6-6-----|
D-0-0-0-0-0-0-0-0-0-0-0-0-0-0-0-0-0-0-0-0-0-0-0-0-0-0-0-0-0-0-0-0-----|
A-x-x-x-x-x-x-x-x-x-x-x-x-x-x-x-x-x-x-x-x-x-x-x-x-x-x-x-x-x-x-x-x-----|
E-7-7-7-7-7-7-7-7-5-5-5-5-5-5-5-5-3-3-3-3-3-3-3-3-3-3-3-5-5-5-5-5-----|

Verse 2
e---------------------------------------------------------------------|
B---------------------------------------------------------------------|
G-x7-4~-x2-6~-x7-4~-x2-6h7p6~-x7-6~-x2-6~-x7-4~-x2-6h7p6~-------------|
D-x0-0~-x0-0~-x0-0~-x0-0~-----x0-0~-x0-0~-x0-0~-x0-0~-----------------|
A-xx-x~-xx-x~-xx-x~-xx-x~-----xx-x~-xx-x~-xx-x~-xx-x~-----------------|
E-x7-3~-x2-5~-x7-3~-x2-5~-----x5-5~-x2-5~-x7-3~-x2-5~-----------------|

e-----------------------------------------------------------------------|
B-----------------------------------------------------------------------|
G-4-4-4-4-4-4-4-4-4-4-6-6-6-6-6-6-7-7-4-4-4-4-4-4-4-4-4-4-4-6-6-6-6-6-6-|
D-0-0-0-0-0-0-0-0-0-0-0-0-0-0-0-0-0-0-0-0-0-0-0-0-0-0-0-0-0-0-0-0-0-0-0-|
A-x-x-x-x-x-x-x-x-x-x-x-x-x-x-x-x-x-x-x-x-x-x-x-x-x-x-x-x-x-x-x-x-x-x-x-|
E-3-3-3-3-3-3-3-3-3-3-5-5-5-5-5-5-7-7-3-3-3-3-3-3-3-3-3-3-3-5-5-5-5-5-5-|

Chorus:
e---------------------------------------------------------------------|
B---------------------------------------------------------------------|
G-7-7-7-7-7-7-7-7-6-6-6-6-7-7-6-6-4-4-4-4-4-4-4-4-4-4-6-6-6-6-6-6-----|
D-0-0-0-0-0-0-0-0-0-0-0-0-0-0-0-0-0-0-0-0-0-0-0-0-0-0-0-0-0-0-0-0-----|
A-x-x-x-x-x-x-x-x-x-x-x-x-x-x-x-x-x-x-x-x-x-x-x-x-x-x-x-x-x-x-x-x-----|
E-7-7-7-7-7-7-7-7-5-5-5-5-5-5-5-5-3-3-3-3-3-3-3-3-3-3-3-5-5-5-5-5-----|

e---------------------------------------------------------------------|
B---------------------------------------------------------------------|
G-7-7-7-7-7-7-7-7-6-6-6-6-7-7-6-6-4-4-4-4-4-4-4-4-4-4-6-6-6-6-6-6-----|
D-0-0-0-0-0-0-0-0-0-0-0-0-0-0-0-0-0-0-0-0-0-0-0-0-0-0-0-0-0-0-0-0-----|
A-x-x-x-x-x-x-x-x-x-x-x-x-x-x-x-x-x-x-x-x-x-x-x-x-x-x-x-x-x-x-x-x-----|
E-7-7-7-7-7-7-7-7-5-5-5-5-5-5-5-5-3-3-3-3-3-3-3-3-3-3-3-5-5-5-5-5-----|

Bridge:
e---------------------------------------------------------------------|
B---------------------------------------------------------------------|
G-7-7-7-7-7-7-7-7-4-4-4-4-4-4-4-4-7-7-7-7-7-7-7-7-6-6-6-6-6-6-6-6-----|
D-0-0-0-0-0-0-0-0-0-0-0-0-0-0-0-0-x-x-x-x-x-x-x-x-0-0-0-0-0-0-0-0-----|
A-x-x-x-x-x-x-x-x-x-x-x-x-x-x-x-x-5-5-5-5-5-5-5-5-x-x-x-x-x-x-x-x-----|
E-7-7-7-7-7-7-7-7-3-3-3-3-3-3-3-3-----------------5-5-5-5-5-5-5-5-----|

e---------------------------------------------------------------------|
B---------------------------------------------------------------------|
G-7-7-7-7-7-7-7-7-4-4-4-4-4-4-4-4-7-7-7-7-7-7-7-7-6-6-6-6-6-6-6-6-----|
D-0-0-0-0-0-0-0-0-0-0-0-0-0-0-0-0-x-x-x-x-x-x-x-x-0-0-0-0-0-0-0-0-----|
A-x-x-x-x-x-x-x-x-x-x-x-x-x-x-x-x-5-5-5-5-5-5-5-5-x-x-x-x-x-x-x-x-----|
E-7-7-7-7-7-7-7-7-3-3-3-3-3-3-3-3-----------------5-5-5-5-5-5-5-5-----|

Pre-Chorus:
e---------------------------------------------------------------------|
B---------------------------------------------------------------------|
G-4-4-4-4-4-4-4-4-4-4-6-6-6-6-6-6/7-4-4-4-4-4-4-4-4-4-4-6-6-6-6-6-6---|
D-0-0-0-0-0-0-0-0-0-0-0-0-0-0-0-0-0-0-0-0-0-0-0-0-0-0-0-0-0-0-0-0-0---|
A-x-x-x-x-x-x-x-x-x-x-x-x-x-x-x-x-x-x-x-x-x-x-x-x-x-x-x-x-x-x-x-x-x---|
E-3-3-3-3-3-3-3-3-3-3-5-5-5-5-5-5/7-3-3-3-3-3-3-3-3-3-3-5-5-5-5-5-5---

Chorus:
e---------------------------------------------------------------------|
B---------------------------------------------------------------------|
G-7-7-7-7-7-7-7-7-6-6-6-6-7-7-6-6-4-4-4-4-4-4-4-4-4-4-6-6-6-6-6-6-----|
D-0-0-0-0-0-0-0-0-0-0-0-0-0-0-0-0-0-0-0-0-0-0-0-0-0-0-0-0-0-0-0-0-----|
A-x-x-x-x-x-x-x-x-x-x-x-x-x-x-x-x-x-x-x-x-x-x-x-x-x-x-x-x-x-x-x-x-----|
E-7-7-7-7-7-7-7-7-5-5-5-5-5-5-5-5-3-3-3-3-3-3-3-3-3-3-3-5-5-5-5-5-----|

e---------------------------------------------------------------------|
B---------------------------------------------------------------------|
G-7-7-7-7-7-7-7-7-6-6-6-6-7-7-6-6-4-4-4-4-4-4-4-4-4-4-6-6-6-6-6-6-----|
D-0-0-0-0-0-0-0-0-0-0-0-0-0-0-0-0-0-0-0-0-0-0-0-0-0-0-0-0-0-0-0-0-----|
A-x-x-x-x-x-x-x-x-x-x-x-x-x-x-x-x-x-x-x-x-x-x-x-x-x-x-x-x-x-x-x-x-----|
E-7-7-7-7-7-7-7-7-5-5-5-5-5-5-5-5-3-3-3-3-3-3-3-3-3-3-3-5-5-5-5-5-----|


            
            
Suggest correction
Creating personal tab
Creating personal tab
You can edit any tab online and save it as your Personal.

You can edit, replace or remove any tab part or add personal notes – all changes will be seen only by you.

Personal tabs can be accessed anytime from any device, even offline.
Learn more »
Give kudos to tab author, rate the tab!
1 2 3 4 5
comments
print report bad tab
3 comments total.
0 reply
Wonderwall_75 10 Mar 05, 2007 11:55 AM

Excellent. This is pretty much the way I play it. I hated that the other ones didn't put in the scrapes. Good job buddy.

0 reply
cassafrizzle* 10 Jan 13, 2009 09:17 AM

Hahah, I feel stupid asking this, but how would you mute the A string?
I love this song and I wanna play it really bad, but every version says to mute that string, and Im sitting here like "...how?"
=)

0 reply
cassafrizzle* 10 Jan 16, 2009 06:28 AM

Ohemgee. Hahah, I feel dumb now.
I remember how =D
I apologize for that little moment.
Nice tab by the waay =)

guest
Wanna post a correction for this tab? Suggest correction