Oops, an error
Loading. Please wait.
1,337 views 3 this week
2 commentsread comments
1 2 3 4 5
1 last vote to show rating
add to favorites
×
Save as Personal and add changes to this tab that will be seen only by you. Learn more ›
×
You can save this tab as Personal to edit and correct it or add notes. All changes will be seen only by you. Learn more »
launch autoscroll
font size
0
reset
guitar tuner
edit
Autoscroll
slow
fast
+/-
esc
set tempo
stop
Author
Tabbed by: Valerie L.
e-mail: iloled@yahoo.com

Intro "Soon this is the same old blood rush..."
G|--------------------------------------------|
A|-5-55-5-54-5-55-5-54-5-5-1/5-5-54-5-55-5-54-|
D|--------------------------------------------|
E|--------------------------------------------|

Pre-Chorus: "We all wet our lips.."
G|---------------------------------------------------------------------|
A|---------------------------------------------------------------------|
D|--2222222222222222-333333333333333-222222222222222-0000000000000000--|
E|---------------------------------------------------------------------|

Chorus:
G|----------------------------------------------------------|
A|-----------------------------55-77-99-77-------99-77-5544-|
D|-----------22222222-33333333--------------3333------------|
E|--33333333------------------------------------------------|

G|--------------------------------------|
A|--------------------------------------|
D|-----------22222222-33333333-55555555-|
E|--33333333----------------------------|

Verse:
G|---------------------------------------------|
A|---------------------------------------------|
D|-2-2-2-2222-3-3-3-3333-2-2-2-2222-0-0-0-0000-|
E|---------------------------------------------|

Pre-Chorus x1
Chorus x1

keep hitting until (2:13)
G|-------|
A|-5>>---|
D|-------|
E|-------|

Bridge
G|-------------------------------------|
A|----------5-5-55-5-------------------|
D|-------------------2-2-22-2-3-3-33-3-|
E|-0-0-00-0----------------------------| x2

keep hitting until (2:41)
G|-------|
A|-5>>---|
D|-------|
E|-------|

Chorus 

Ending:
G|-------------|
A|-------------|
D|-------------|
E|-3-3-3-3333--| x3
Suggest correction
Creating personal tab
Creating personal tab
You can edit any tab online and save it as your Personal.

You can edit, replace or remove any tab part or add personal notes – all changes will be seen only by you.

Personal tabs can be accessed anytime from any device, even offline.
Learn more »
Give kudos to tab author, rate the tab!
1 2 3 4 5
comments
print report bad tab
2 comments total.
+1 reply
fake_sk8r182 103 Feb 25, 2007 08:06 AM

Bad tab!

-1 reply
iheart_a7x 3,681 Feb 25, 2007 07:25 PM

Maybe your bass playing is just horrible. Yeah, I'm pretty sure that's it.

guest
You may want to rate the tab now too:
select rating
Wanna post a correction for this tab? Suggest correction