Oops, an error
Loading. Please wait.

Newport Living bass

2,608 views 3 this week
5 commentsread comments
1 2 3 4 5
x 3
add to favorites
×
Save as Personal and add changes to this tab that will be seen only by you. Learn more ›
×
You can save this tab as Personal to edit and correct it or add notes. All changes will be seen only by you. Learn more »
launch autoscroll
font size
0
reset
guitar tuner
edit
Autoscroll
slow
fast
+/-
esc
set tempo
stop
Artist: Cute Is What We Aim For
Bassist: Jack Marin (current)
Song: Newport Living
Album: The Same Old Bloodrush With A New Touch
Tabbed By: Lewis [lewis_mason21@hotmail.com]

There's not enough CIWWAF Bass Tabs on here, so I thought I'd try changing that!

EDIT: Changed up the pre-chorus and second verse a bit, credit to TristanGraham for pointing it out ;)

Key:
~: Let Note Ring
r: Rest A Beat

[Tuning: Standard - E,A,D,G]

Intro:
("Everyone's a let down" ... "It just depends on how far down they can go")
G|-------------REST-------------|
D|-------------REST-------------|
A|-------------REST-------------|
E|-------------REST-------------|

Verse One: [x4]
("In every circle of friends" ... "The liquor doesn't exist in my world")
G|-------------------------------------|
D|-------------------------------------|
A|-55555555----------33333333-11111111-|
E|----------11111111-------------------|

Pre-Chorus:
[Note: I haven't tabbed the exact rhytm, but it's in a '1, 2, 3-4-5...' kinda beat]
("If you lie you don't deserve to have friends" ... "If you lie")
G|---------------------------------|
D|---------------------------------|
A|-5-5-5-5-----------------3-3-r-3-|
E|---------5-5-r-5-3-3-3-3---------|

G|-----------------------------|
D|-----------------------------|
A|-5-5-5-5-----------------3-3-|
E|---------5-5-r-5-3-3-3-3-----|

Chorus:
("You are a sell-out" ... "On a half-price clearance rack")
G|----------------------------------------------------------------------|
D|----------------------------------------------------------------------|
A|-5555555555555555------------------1111111111111111-33333333344444444-|
E|------------------5555555555555555------------------------------------|

G|----------------------------------------------------------------------|
D|----------------------------------------------------------------------|
A|-5555555555555555------------------1111111111111111-33333333344445555-|
E|------------------5555555555555555------------------------------------|

Post-Chorus:
G|------|
D|------|
A|-4-55-|
E|------|

Verse Two: [Note: Listen for those A#'s to get the timing!]
("The social scene" ... "Do you really wanna be the star of it")
G|---------------------------------------------------------------|
D|---------------------------------------------------------------|
A|-55555555555555555555------------------3333333333333333-11-111-|
E|----------------------1111111111111111-------------------------| [x2]

G|---------------------|
D|---------------------|
A|-55555555----------3-|
E|----------11111111---| [x1]

Chorus:
("You are a sell-out" ... "On a half-price clearance rack")
G|----------------------------------------------------------------------|
D|----------------------------------------------------------------------|
A|-5555555555555555------------------1111111111111111-33333333344444444-|
E|------------------5555555555555555------------------------------------|

G|----------------------------------------------------------------------|
D|----------------------------------------------------------------------|
A|-5555555555555555------------------1111111111111111-33333333344445555-|
E|------------------5555555555555555------------------------------------|

Interlude One: [Note: Each time after the muted guitar completes the Pre-Chorus, play the C]
("If you lie you don't deserve to have friends" ... "If you lie")
G|----|
D|----|
A|-3~-|
E|----| [x4]

Interlude Two: [Note: Bass plays same as guitars now]
G|---------------------------------|
D|---------------------------------|
A|-5-5-5-5-----------------3-3-r-3-|
E|---------5-5-r-5-3-3-3-3---------|

G|-----------------------------|
D|-----------------------------|
A|-5-5-5-5-----------------3-3-|
E|---------5-5-r-5-3-3-3-3-----|

Chorus:
("You are a sell-out" ... "On a half-price clearance rack")
G|----------------------------------------------------------------------|
D|----------------------------------------------------------------------|
A|-5555555555555555------------------1111111111111111-33333333344444444-|
E|------------------5555555555555555------------------------------------|

G|----------------------------------------------------------------------|
D|----------------------------------------------------------------------|
A|-5555555555555555------------------1111111111111111-33333333344445555-|
E|------------------5555555555555555------------------------------------|
Suggest correction
Creating personal tab
Creating personal tab
You can edit any tab online and save it as your Personal.

You can edit, replace or remove any tab part or add personal notes – all changes will be seen only by you.

Personal tabs can be accessed anytime from any device, even offline.
Learn more »
Give kudos to tab author, rate the tab!
1 2 3 4 5
comments
print report bad tab
5 comments total. Showing first comments.
0 reply
TristanGraham 31 Jan 17, 2007 10:13 PM

Okay, I'm not the person who's 'great' at tabbing but for the bit where it goes:

G|---------------------------------|
D|---------------------------------|
A|-5-5-5-5-----------------3-3-3-3-|
E|---------5-5-5-5-3-3-3-3---------|

Should actually be:

G|---------------------|
D|----------------------|
A|-5-5-5------------3-3-|
E|-------5-5-p-5-3-3----|

p= short pause

There yoo go I think this is more correct =]

0 reply
LewisMasonx 1,741 Jan 18, 2007 08:53 AM

Hmm, yup, that sounds a lot more accurate ^^ Probably

G|---------------------------------|
D|---------------------------------|
A|-5-5-5-------------------3-3-r-3-|
E|-------5-5-5-r-5-3-3-3-3---------|

Except, maybe that last three isn't there. But that's a lot more accurate, cheers!

0 reply
TristanGraham 31 Jan 25, 2007 08:46 AM

I've just played it for like the 50th time ^^
That last three is there if you listen carefuly but only on the first time, on the second one you go straight on!

Nice work ^_^

guest
You may want to rate the tab now too:
select rating
Wanna post a correction for this tab? Suggest correction