Oops, an error
Loading. Please wait.

Newport Living tab

version 2
version 2

Whole song

7,346 views 3 this week
6 commentsread comments
1 2 3 4 5
x 5
add to favorites
×
Save as Personal and add changes to this tab that will be seen only by you. Learn more ›
×
You can save this tab as Personal to edit and correct it or add notes. All changes will be seen only by you. Learn more »
launch autoscroll
font size
0
reset
how to read this tab
guitar tuner
edit
Autoscroll
slow
fast
+/-
esc
set tempo
stop
This is my second tab of Cute is what we aim for. i tabbed another one like yesterday 
i decided to do a couple more. i think this one is pretty much complete there might be 
mistakes here and there but in general it should be right. i think. peace

{Intro}0:00-0:05
{Verse} 0:06-0:29

Guitar 1
e|-------------------------|----------------------|
B|-666-5-5-666-5-5---------|-6--------------------|
G|-555-4-4-555-4-4------x8-|-5--------------------|
D|------------------------------------------------|End with this after the eighth time
A|-------------------------|----------------------|
D|-------------------------|----------------------|

{Pre-Chorus} 0:29-0:40
Guitar 1
e|-----------------------------------------------|
B|-----------------------------------------------|
G|-----------------------------------------------|
D|-12121212-77-7-5555-1010-10-12121212-77-7-5555-|
A|-12121212-77-7-5555-1010-10-12121212-77-7-5555-|
D|-12121212-77-7-5555-1010-10-12121212-77-7-5555-|
p.m . . . . .. . ....  . .  .  . . . . .. . ....

gtr 1 continued
e|-----------------------------------------------|
B|-----------------------------------------------|
G|-----------------------------------------------|
D|-10--------------------------------------------|
A|-10--X12---------------------------------------|
D|-10--------------------------------------------|

{Chorus} 0:40-1:09

Guitar 1
e|-----------------------------------------------|
B|-----------------------------------------------|
G|-----------------------------------------------|
D|-12------7------8------10-----11----------x2---|
A|-12-x16--7-x16--8-x16--10-x8--11-x8------------|
D|-12------7------8------10-----11---------------|

{Pre-Verse} 1:04-1:09

Guitar 1
e|-----------------------------------------------|
B|-666-5-5-666-5-5-------------------------------|
G|-555-4-4-555-4-4-----x2------------------------|
D|-----------------------------------------------|
A|-----------------------------------------------|
D|-----------------------------------------------|

Guitar 2
e|-----------------------------------------------|
B|-----------------------------------------------|
G|-----------------------------------------------|
D|-12--------------------------------------------|
A|-12--------------------------------------------|
D|-12--------------------------------------------|

{Verse 2} 1:10-1:38

Guitar 1
e|------------------------|-----------------------|
B|-666-5-5-666-5-5--------|-6---------------------|
G|-555-4-4-555-4-4-----x9-|-5---------------------|
D|------------------------------------------------|End with this after the ninth time
A|------------------------|-----------------------|
D|------------------------|-----------------------|

{Chorus} 1:39-2:02

Guitar 1
e|-----------------------------------------------|
B|-----------------------------------------------|
G|-----------------------------------------------|
D|-12------7------8------10-----11----------x2---|
A|-12-x16--7-x16--8-x16--10-x8--11-x8------------|
D|-12------7------8------10-----11---------------|

{Bridge} 2:02-2:37

Guitar 1
e|-----------------------------------------------|
B|-----------------------------------------------|
G|-----------------------------------------------|
D|-12121212-77-7-5555-1010-10--------------------|
A|-12121212-77-7-5555-1010-10-----x4-------------|
D|-12121212-77-7-5555-1010-10--------------------|
p.m . . . . .. . ....  . .  .

Guitar 2
e|-----------------------------------------------|
B|-----------------------------------------------|
G|-----------------------------------------------|
D|-12--------------------------------------------|
A|-12--------------------------------------------|
D|-12--------------------------------------------|

Guitar 1
e|------------------------------------------------|
B|------------------------------------------------|on the second time only play
G|------------------------------------------------|the first three chords.
D|-12121212-7777-5555-10101010--------------------|
A|-12121212-7777-5555-10101010-----x2-------------|
D|-12121212-7777-5555-10101010--------------------|
p.m . . . . .... ....  . . . .

Guitar 1
e|-----------------------------------------------|
B|-----------------------------------------------|
G|-----------------------------------------------|
D|-10--------------------------------------------|
A|-10-x12----------------------------------------|
D|-10--------------------------------------------|

{last Chorus} 2:38-3:00

guitar 1
e|-----------------------------------------------|
B|-----------------------------------------------|
G|-----------------------------------------------|
D|-12-----7------8------10-----11--------x2------|
A|-12-x6--7-x16--8-x16--10-x8--11-x8-------------|
D|-12-----7------8------10-----11----------------|

{Outro} 3:01-3:23
e|-----------------------------------------------|
B|-----------------------------------------------|
G|-----------------------------------------------|
D|-12~-------------------------------------------|
A|-12~-------------------------------------------|
D|-12~-------------------------------------------|

            
            
Suggest correction
Creating personal tab
Creating personal tab
You can edit any tab online and save it as your Personal.

You can edit, replace or remove any tab part or add personal notes – all changes will be seen only by you.

Personal tabs can be accessed anytime from any device, even offline.
Learn more »
comments
print report bad tab
6 comments total. Showing first comments.
0 reply
Julian K 82 Oct 07, 2006 12:12 PM

i beg u tab finger twist and split

0 reply
JessicaGonzo 231 Jan 20, 2008 09:11 PM

Ha This tab is actually right. The other one was wrong... Thanks.

0 reply
lolbbq 41 Jul 28, 2008 05:35 PM

This song isn't supposed to be in Drop D, this band hasn't wrote a song in drop D to date. Please fix it.

guest
You may want to rate the tab now too:
select rating
Wanna post a correction for this tab? Suggest correction