Oops, an error
Loading. Please wait.

Practice Makes Perfect Tab

version 1
version 1

Whole song

Interactive

4,234 views 1 this week
no commentswrite comment
1 2 3 4 5
please rate
add to favorites
launch autoscroll
font size
0
reset
how to read this tab
guitar tuner
Autoscroll
slow
fast
+/-
esc
set tempo
stop
Help us to improve Ultimate-Guitar.com Take our survey!
×
Contributor
Difficulty
Ciwwaf6 92
intermediate
Intro/Verse

Guitar 1:

e-------9---(9)-------9------|(9)
b--7--7--(7)----7--7---(7)---|
g----------------------------|
d-9--9--------8--8-----------|
a----------------------------|
e----------------------------|

e------9------|(9)
b--7--7-(7)---|
g-------------|
d-9--9--------|
a-------------|
e-------------|

e-------7--(7---|x6
b--7--7--(7)----|
g-6--6----------|
d---------------|
a---------------|
e---------------|

Intro is once while the other five times are without the parenthesized notes for the 
Guitar two: Is played after the intro:

Guitar 2:

e---------------------|x1
b---------------------|
g---------------------|
d-4h6-4---------------|
a------6-4~1-1-1-2~4~-|

Pre Chorus:

Guitar 1:

e-------------------------------------|
b-------------------------------------|
g-------------------------------------|
d-------------------------11-11-11-11-|
a-9-9-9-9-8-8-8-8-9-9-9-9-------------|
e-------------------------------------|

e----------------------|x1
b----------------------|
g----------------------|
d------------------11~-|
a-9-9-9-9-8-8-8-8------|
e----------------------|

Chorus 1:

Guitar 1:

e---------------------------------------------x2        e--------|
b---------------------------------------------          b--------|
g-4-4-4-----------------8-8-8-8-8-6-6-6-6-6-6          g-4~~4~~--|
d-4-4-4--4~4-4-4-4-4-4--8-8-8-8-8-6-6-6-6-6-6          d-4~~4~~--|
a-2-2-2--4~4-4-4-4-4-4--6-6-6-6-6-4-4-4-4-4-4   End on a-2~~2~~--|
e--------2~2-2-2-2-2-2------------------------          e--------|

Guitar 2:

e-----------|(Same Rhythm as the first guitar)
b-7-2-14-9--|x2
g-7-2-14-9--|
d-7-2-14-9--|
a-5-0-12-7--|  end on the D chord same rhythm
e-----------|

Interlude:

Guitar 1:

e-9~~~~~~~-9~~~~~~~~
g-------------------|
d-------------------|
a-------------------|
e-------------------|

Guitar 2:

e---------x3   e-----|
b-x-11^---     b-12~-|
g------11-     g-----|
d---------     d-----|
a---------     a-----|
e---------     e-----|

Verse 2:

Guitar 1:

e-------------|x2
b-------------|
g-44-88-66-66-|
d-44-88-66-66-|
a-22-66-44-44-|
e-------------|
 P.M.........

e----------------------------|
b----------------------------|
g-4444-11111111--8888-6666---|
d-4444-11111111--8888-6666---|
a-2222-9-9-9-9---6666-4444---|
e----------------------------|

Interlude:

Guitar1:

e-------|
b-------|
g-4~~4~~
d-4~~4~~
a-2~~2~~
e-------

Chorus 2:

Guitar 1:

e----------------------------------------------|x2
b----------------------------------------------|
g-4-4-4------------------8-8-8-8-8-6-6-6-6-6-6-|
d-4-4-4--4~4-4-4-4-4-4---8-8-8-8-8-6-6-6-6-6-6-|
a-2-2-2--4~4-4-4-4-4-4---6-6-6-6-6-4-4-4-4-4-4-|
e--------2~2-2-2-2-2-2-------------------------|

e-------------------------------------|
b-------------------------------------|
g-8-8-8---------------4-4-4-4-4-4-4-4-|
d-8-8-8-4~4-4-4-4-4-4-4-4-4-4-4-4-4-4-|
a-6-6-6-4~4-4-4-4-4-4-2-2-2-2-2-2-2-2-|
e-------2~2-2-2-2-2-2-----------------|

e-----------------------------------------|
b-----------------------------------------|
g-8-8-8---------------4-4-4-4--4--4--4--4-|
d-8-8-8-4~4-4-4-4-4-4-4-4-4-4--4--4--4--4-|
a-6-6-6-4~4-4-4-4-4-4-2-2-2-2--2--2--2--2-|
e-------2~2-2-2-2-2-2---------------------|

Interlude:

Guitar 2

e--------------------------------|
b--------------------------------|
g--------------------------------|
d--------------------------------|
a-6666666666666666666666666666666
e--------------------------------

e----------------------------------------------------------------|
b----------------------------------------------------------------|
g----------------------------------------------------------------|
d----------------------------------------------------------------|
a-66666666-88888888-99999999-1111111111111111-1414141414141414---|
e----------------------------------------------------------------|

e----------------------------------------------------|x2
b----------------------------------------------------|
g----------------------------------------------------|
d----------------------------------------------------|
a----------------------------------------------------|
e-1313131313131313-1414141414141414-1111111111111111-|

Guitar 1:

e-----------------------------------------------------------|x2
b-----------------------------------------------------------|
g-8x8x88----------------------------------------------------|
d-8x8x88-3x3x33-4x4x44-6x6x66-9x9x99-8x8x88-8x8x88-66666666-|
a-6x6x66-4x4x44-4x4x44-6x6x66-9x9x99-9x9x99-9x9x99-66666666-|
e--------1x1x11-2x2x22-4x4x44-7x7x77-6x6x66-7x7x77-44444444-|

Guitar 1:

e-------------------------|
b-------------------------|
g-11~8-8-8-8-6-6-6-6-6-6--|
d-11~8-8-8-8-6-6-6-6-6-6--|
a-9~-6-6-6-6-4-4-4-4-4-4--|

e----------------------------------------------|
b----------------------------------------------|
g-4-4-4------------------8-8-8-8-8-6-6-6-6-6-6-|
d-4-4-4--4~4-4-4-4-4-4---8-8-8-8-8-6-6-6-6-6-6-|
a-2-2-2--4~4-4-4-4-4-4---6-6-6-6-6-4-4-4-4-4-4-|
e--------2~2-2-2-2-2-2-------------------------|

e-------------------------------------|
b-------------------------------------|
g-8-8-8---------------4-4-4-4-4-4-4-4-|
d-8-8-8-4~4-4-4-4-4-4-4-4-4-4-4-4-4-4-|
a-6-6-6-4~4-4-4-4-4-4-2-2-2-2-2-2-2-2-|
e-------2~2-2-2-2-2-2-----------------|

e-----------------------------------------|
b-----------------------------------------|
g-8-8-8---------------4-4-4-4--4--4--4--4-|
d-8-8-8-4~4-4-4-4-4-4-4-4-4-4--4--4--4--4-|
a-6-6-6-4~4-4-4-4-4-4-2-2-2-2--2--2--2--2-|
e-------2~2-2-2-2-2-2---------------------|

Outro:

e-----------------------------------------------------------|
b-----------------------------------------------------------|
g-8x8x88----------------------------------------------------|
d-8x8x88-3x3x33-4x4x44-6x6x66-9x9x99-8x8x88-8x8x88-66666666-|
a-6x6x66-4x4x44-4x4x44-6x6x66-9x9x99-9x9x99-9x9x99-66666666-|
e--------1x1x11-2x2x22-4x4x44-7x7x77-6x6x66-7x7x77-44444444-|

e------|
b------|
g-4~~~~|
d-4~~~~|
a-2~~~~|
e------|
Suggest correction What's this?
You can suggest a correction to this tab. Community and Mods will review your correction and vote to approve or reject it.
comments
We did not receive enough feedback on this tab! Please rate:
print report bad tab
1 2 3 4 5
I want to post or [tab]
guest
You may want to rate the tab now too:
select rating
Please do not post tabs as comments. Select "correction" instead!