Oops, an error
Loading. Please wait.

Risque bass

version 2
version 2

Whole song

Interactive

3,065 views 6 this week
4 commentsread comments
1 2 3 4 5
x 11
add to favorites
×
Save as Personal and add changes to this tab that will be seen only by you. Learn more ›
×
You can save this tab as Personal to edit and correct it or add notes. All changes will be seen only by you. Learn more »
launch autoscroll
font size
0
reset
guitar tuner
edit
Autoscroll
slow
fast
+/-
esc
set tempo
stop
Author
Difficulty
Risqué – Cute Is What We Aim For

Intro x1
G|--------------------------------|
A|--------------------------------|
D|--------------------------------|
E|--0-----9-----5-----7-----------|

Verse x8                 Play 8th time
G|----------------------/-----------|
A|----------------------\-----------|
D|----------------------/-----------|
E|--5--5-7--7-0--0-9-7--\--5--5-7--7-000000-|

Chorus x1
G|---------------------------------|
A|---------------------------------|
D|--7x16---------------------------|
E|-------9x16---5x16---7x16--------|

Verse x8                 Play 8th time
G|----------------------/-----------|
A|----------------------\-----------|
D|----------------------/-----------|
E|--5--5-7--7-0--0-9-7--\--5--5-7--7-000000-|

Chorus x2
G|---------------------------------|
A|---------------------------------|
D|--7x16---------------------------|
E|-------9x16---5x16---7x16--------|

Bridge x2
G|--------------------------------|
A|--------------------------------|
D|-----------7x16-----------------|
E|--9x16—5x16----7x16-------------|

Verse x4                 Play 4th time
G|----------------------/---------------|
A|----------------------\---------------|
D|----------------------/---------------|
E|--5--5-7--7-0--0-9-7--\--5--5-7-7/12--|

Intro x1
G|--------------------------------------|
A|--------------------------------------|
D|--------------------------------------|
E|--0-----9-----5x16-----7x13-----------|

Chorus x2
G|--------------------------/-----------|
A|--------------------------\-----------|
D|--7x16--------------------/-----------|
E|-------9x16---5x16---7x16-\7~---------|

            
            
Suggest correction
Creating personal tab
Creating personal tab
You can edit any tab online and save it as your Personal.

You can edit, replace or remove any tab part or add personal notes – all changes will be seen only by you.

Personal tabs can be accessed anytime from any device, even offline.
Learn more »
comments
print report bad tab
4 comments total. Showing first comments.
+1 reply
Hansonator3 208 Jul 21, 2007 10:06 AM

i cant stand this song

but u made a freekin awesome tab

very nice work

-1 reply
justinforrest 75 Oct 05, 2007 03:58 PM

u copied mine

+1 reply
danielspeed86 74 Feb 01, 2008 07:56 PM

mad justinforrest your is heaps wrong compared to this one.

anywho this is one mad tab here thanks for it

guest
You may want to rate the tab now too:
select rating
Wanna post a correction for this tab? Suggest correction