Oops, an error
Loading. Please wait.

Risque bass

version 3
version 3

Whole song

Interactive

912 views 1 this week
1 commentread comment
1 2 3 4 5
1 last vote to show rating
add to favorites
×
Save as Personal and add changes to this tab that will be seen only by you. Learn more ›
×
You can save this tab as Personal to edit and correct it or add notes. All changes will be seen only by you. Learn more »
launch autoscroll
font size
0
reset
guitar tuner
edit
Autoscroll
slow
fast
+/-
esc
set tempo
stop
Difficulty
-------------------------------------------------------------------------------
			  Risque - Cute Is What We Aim For
-------------------------------------------------------------------------------

Tabbed By : Francis Camacho
e-mail: gudisnypr@yahoo.com

Tuning: C Tuning

| /  slide up
| \  slide down
| h  hammer-on
| p  pull-off
| ~  vibrato
| +  harmonic
| x  Mute note

Intro
G-------------------|
D-------------------|
A--5~---------------|
D------9~--5~--7~---| x 1

Verse
Part 1
G------------------------|
D------------------------|
A------------------------|
D--5--5-7--7-0--0-9-7----| x 7

Part 2
G-------------------|
D-------------------|
A-------------------|
D--5--5-7--7-0(x5)--| x 1

Chorus
Part 1
G------------------------------------------|
D------------------------------------------|
A--5(x16)---------999-777------------------|
D---------9(x12)-----------5(x16)--7(x12)--|

Part 2
G------------------------------------------------|
D------------------------------------------------|
A--5(x16)--------999-777-55----------------------|
D---------9(x8)--------------5(x16)--7(x10)--5\/-|

Verse
Part 1 (x9)

Part 2 (x1)

Chorus
Part 1 (x1)

Part 2 (x1) (Without Slide)

Bridge
G------------------------------------|
D------------------------------------|
A------------------------------------|
D--9(x16)--5(x16)--12(x16)--7(x16)---| (x2)

Verse (x3)

Variation
G------------------|
D------------------|
A------------------|
D--5--5-7--7\12~---| (x1)

Intro Variation
G------------------------|
D------------------------|
A--5---------------------|
D-----9--5(x16)--7(x13)--| (x1)

Chorus
Part 1 (x1)

Part 2 (x1) (Without Slide)

Outro
G-------|
D-------|
A--5~---|
D-------| (x1)

            
            
Suggest correction
Creating personal tab
Creating personal tab
You can edit any tab online and save it as your Personal.

You can edit, replace or remove any tab part or add personal notes – all changes will be seen only by you.

Personal tabs can be accessed anytime from any device, even offline.
Learn more »
Give kudos to tab author, rate the tab!
1 2 3 4 5
comments
print report bad tab
1 comment total.
0 reply
GudISnypr 31 May 28, 2008 07:58 PM

this is my tab,

it's actually not C tuning but
drop D tuning, as you can see :D

guest
Wanna post a correction for this tab? Suggest correction