Oops, an error
Loading. Please wait.

Sweet Talk 101 bass

version 1
version 1

Whole song

Interactive

1,035 views 1 this week
no commentswrite comment
1 2 3 4 5
1 last vote to show rating
add to favorites
×
Save as Personal and add changes to this tab that will be seen only by you. Learn more ›
×
You can save this tab as Personal to edit and correct it or add notes. All changes will be seen only by you. Learn more »
launch autoscroll
font size
0
reset
guitar tuner
edit
Autoscroll
slow
fast
+/-
esc
set tempo
stop
Author
Difficulty
Artist: Cute Is What We Aim For
Bassist: Jack Marin (current)
Song: Sweet Talk 101
Album: The Same Old Bloodrush With A New Touch
Tabbed By: Lewis [lewis_mason21@hotmail.com]

Credit for the little fill at the end of the verses goes to the Guitar Pro tab, I was a 
off with it before.  And the slide, which I had on the A String!

Key:
~: Let Note Ring
/: Slide Up

[Tuning: Standard - E,A,D,G]

Intro: [Note: Come in after the guitars]
G|---------------------------------|
D|---------------------------------|
A|-----------------444-444-555-555-|
E|-555-555-222-222-----------------| [x2]

Pre-Verse:
("You have a jump in your step" ... "A rip in your rep")
G|--------------REST---------------|
D|--------------REST---------------|
A|--------------REST---------------|
E|--------------REST---------------|

Verse One: [x2]
("And everybody knows it" ... "You aren't allowed to brag")
G|-------------------------------------|
D|-------------------------------------|
A|-------------------44444444-5-5-5420-|
E|-55555555-22222222-------------------|

Pre-Chorus: [x2]
("I just gave myself the shivers" ... "That's what you get")
G|-------------------------------------|
D|-------------------------------------|
A|----------------------------55555555-|
E|-00000000-00000000-22222222----------|

Chorus:
("With that facade" ... "Be sure to read the fine print")
G|---------------------------------------------------------------|
D|---------------------------------------------------------------|
A|-------------------55555555-55555555-------------------------5-|
E|-55555555-55555555-------------------55555555-55555555-00-22---|

Pre-Verse:
G|--------------REST---------------|
D|--------------REST---------------|
A|--------------REST---------------|
E|--------------REST---------------|

Verse Two:
("I spend more time" ... "To brag about how")
G|-------------------------------------|
D|-------------------------------------|
A|-------------------44444444-5-5-5420-|
E|-55555555-22222222-------------------| [x2]

G|---------------------------------|
D|---------------------------------|
A|-----------------444-444-555-555-|
E|-555-555-222-222-----------------| [x2]

Pre-Chorus: [x2]
("I just gave myself the shivers" ... "That's what you get")
G|-------------------------------------|
D|-------------------------------------|
A|----------------------------55555555-|
E|-00000000-00000000-22222222----------|

Chorus: [x2]
("With that facade" ... "Be sure to read the fine print")
G|---------------------------------------------------------------|
D|---------------------------------------------------------------|
A|-------------------55555555-55555555-------------------------5-|
E|-55555555-55555555-------------------55555555-55555555-00-22---|

Post-Chorus:
G|----------|
D|----------|
A|-------5~-|
E|-00-22----|

G|-----|
D|-----|
A|-----|
E|-1/5-|

Interlude: [x2]
("The arch in your eyebrows" ... "Is your, your mattress")
G|-----------------------------------------------------------------|
D|-----------------------------------------------------------------|
A|-----------------5-5-5-5-5-5-5-5---------------------------------|
E|-5-5-5-5-5-5-5-5-----------------0-0-0-0-0-0-0-0-2-2-2-2-2-2-2-2-|

Pre-Chorus Variation: [x2]
("I just gave myself the shivers" ... "That's what you get")
G|----------------------|
D|----------------------|
A|----------------5~----|
E|-0~---0~---2~---------|

Chorus: [x2]
("With that facade" ... "Be sure to read the fine print")
G|---------------------------------------------------------------|
D|---------------------------------------------------------------|
A|-------------------55555555-55555555-------------------------5-|
E|-55555555-55555555-------------------55555555-55555555-00-22---|

Outro:
G|---------------------------|
D|---------------------------|
A|-----------------444-444-5-|
E|-555-555-222-222-----------|

            
            
Suggest correction
Creating personal tab
Creating personal tab
You can edit any tab online and save it as your Personal.

You can edit, replace or remove any tab part or add personal notes – all changes will be seen only by you.

Personal tabs can be accessed anytime from any device, even offline.
Learn more »
Give kudos to tab author, rate the tab!
1 2 3 4 5
comments
print report bad tab
guest
You may want to rate the tab now too:
select rating
Wanna post a correction for this tab? Suggest correction