Oops, an error
Loading. Please wait.

The Lock Down Denial ukulele

22 views 1 this week
no commentswrite comment
1 2 3 4 5
3 more votes to show rating
add to favorites
×
Save as Personal and add changes to this tab that will be seen only by you. Learn more ›
×
You can save this tab as Personal to edit and correct it or add notes. All changes will be seen only by you. Learn more »
launch autoscroll
font size
0
reset
transpose
0
reset
display chords
guitar tuner
edit
Autoscroll
slow
fast
+/-
esc
set tempo
stop
Difficulty
intermediate
Strumming
There is no strumming pattern for this song yet. and get +5 IQ
Cute Is What We Aim For
"The Lock Down Denial"
Rotation

Tabbed by: Austin Morgan (arbocalaviv)
Email: arbocalaviv@AOL.com

Drop D Tuning (DADGBe)

Thanks JohnnySniper!

RHYTHM GUITAR ONLY

Riff 1
e|----------------------------------------------------------|
B|----------------------------------------------------------|
G|----------------------------------------------------------|
D|-5-5-5-5-----8-8-8---3-3-3---5-5-5-5-----8-8-8---13-13-13-|
A|-5-5-5-5-----8-8-8---3-3-3---5-5-5-5-----8-8-8---13-13-13-|
D|-5-5-5-5-----8-8-8---3-3-3---5-5-5-5-----8-8-8---13-13-13-|

Riff 2
e|---------------------------------|
B|---------------------------------|
G|---------------------------------|
D|-1-1-1-1-1-1-1-1-3-3-3-3-3-3-3-3-|
A|-1-1-1-1-1-1-1-1-3-3-3-3-3-3-3-3-|
D|-1-1-1-1-1-1-1-1-3-3-3-3-3-3-3-3-|

Intro 
Riff 1 (x1 then just the first half x1)
Riff 2

Verse
Riff 1 (x1 then just the first half x1)
Riff 2
Riff 1 (x1 then just the first half x1)
Riff 2

Pre-Chorus
Feedback for 2 bars

Chorus
e|-------------------------------------------------------------------|
B|-------------------------------------------------------------------|
G|-------------------------------------------------------------------|
D|-5-5-5-5-5-5-5-5-1-1-1-1-1-1-1-1-8-8-8-8-8-8-8-8-8-3-3-3-3-3-3-3-3-|
A|-5-5-5-5-5-5-5-5-1-1-1-1-1-1-1-1-8-8-8-8-8-8-8-8-8-3-3-3-3-3-3-3-3-|
D|-5-5-5-5-5-5-5-5-1-1-1-1-1-1-1-1-8-8-8-8-8-8-8-8-8-3-3-3-3-3-3-3-3-|

e|-------------------------------------------------------------------|
B|-------------------------------------------------------------------|
G|-------------------------------------------------------------------|
D|-5-5-5-5-5-5-5-5-1-1-1-1-1-1-1-1-8-8-8-8-8-8-8-8-8-8-8-8-8-8-8-8-8-|
A|-5-5-5-5-5-5-5-5-1-1-1-1-1-1-1-1-8-8-8-8-8-8-8-8-8-8-8-8-8-8-8-8-8-|
D|-5-5-5-5-5-5-5-5-1-1-1-1-1-1-1-1-8-8-8-8-8-8-8-8-8-8-8-8-8-8-8-8-8-|

Post-Chorus
Riff 1

Verse 2
Feedback for 3 bars
Riff 2
Riff 1 (x1 then first half x1)
Riff 2

Repeat Pre-Chorus

Repeat Chorus

Bridge
HELP! NO IDEA LOL!

Repeat Chorus

Repeat Riff 1

End on
e|-----|
B|-----|
G|-----|
D|-----|
A|-----|
D|-8\0-|
Suggest correction
Creating personal tab
Creating personal tab
You can edit any tab online and save it as your Personal.

You can edit, replace or remove any tab part or add personal notes – all changes will be seen only by you.

Personal tabs can be accessed anytime from any device, even offline.
Learn more »
Give kudos to tab author, rate the tab!
1 2 3 4 5
comments
print report bad tab
guest
Wanna post a correction for this tab? Suggest correction