Oops, an error
Loading. Please wait.

Theres A Class For This Tab

version 1
version 1

Solo

Whole song

Interactive

7,323 views 3 this week
14 commentsread comments
1 2 3 4 5
worth learning
x 7
add to favorites
launch autoscroll
font size
0
reset
how to read this tab
guitar tuner
Tab Pro tools
  • play this tab
  • loop segment
  • change instrument
  • show fretboard
  • metronome
Autoscroll
slow
fast
+/-
esc
set tempo
stop
Contributor
Difficulty
novice
This is a great song by a great band!!


intro part 1:
e|-------------------------------------------------------|
B|-------------------------------------------------------|
G|-6-6-------6-6-------6-6-5-6-----6-6----------6-6-5-6--|
D|-6-6--6-6--6-6--4-4--6-6-5-6-8-8-6-6-8-8--4-4-6-6-5-6--|
A|-4-4--6-6--4-4--4-4--4-4-3-4-8-8-4-4-8-8--4-4-4-4-3-4--|
E|------4-4-------2-2----------6-6-----6-6--2-2----------|

inro part 2:
e|------------------------------------------------------|
B|------------------------------------------------------|
G|-----------------------------6-6-6-6-6-6-6-6-6-6-6-6--|
D|-8-8---8-8-8-8--4-4--4-4-4-4-6-6-6-6-6-6-6-6-6-6-6-6--|
A|-8-8---8-8-8-8--4-4--4-4-4-4-4-4-4-4-4-4-3-3-3-3-3-3--|
E|-6-6---6-6-6-6--2-2--2-2-2-2--------------------------|

Verse:
e|--------------------------------------------------------------------|
B|--------------------------------------------------------------------|
G|-----------------------------------6-6-6-6-6-6-6-6-6-6-6-6-6-6-6-6--|
D|-8-8-8-8-8-8-8-8--4-4-4-4-4-4-4-4--6-6-6-6-6-6-6-6-6-6-6-6-6-6-6-6--|
A|-8-8-8-8-8-8-8-8--4-4-4-4-4-4-4-4--4-4-4-4-4-4-4-4-3-3-3-3-3-3-3-3--|
E|-6-6-6-6-6-6-6-6--2-2-2-2-2-2-2-2-----------------------------------|
pm....................................................................

Repeat intro part one

Chorus:
e|--------------------------------------------------------------------|
B|--------------------------------------------------------------------|
G|-6-6-6-6-6-6-6-6----------------------------------------------------|
D|-6-6-6-6-6-6-6-6-6-6-6-6-6-6-6-6--4-4-4-4-4-4-4-4--6-6-6-6-6-6-6-6--|
A|-4-4-4-4-4-4-4-4-6-6-6-6-6-6-6-6--4-4-4-4-4-4-4-4--6-6-6-6-6-6-6-6--|
E|-----------------4-4-4-4-4-4-4-4--2-2-2-2-2-2-2-2--4-4-4-4-4-4-4-4--|
Guitar One...

e|--------------------------------------------------------------------------|
B|-12----12----12----12----12----12----12----12----12----12----12----12-----|
G|----13----13----13----13----13----13----13----13----13----13----13----13--|
D|--------------------------------------------------------------------------|
A|--------------------------------------------------------------------------|
E|--------------------------------------------------------------------------|
Guitar Two..

THen second Verse is same until this part

e|------------------------------------------------------|
B|------------------------------------------------------|
G|-----------------------------6-6-6-6-6-6-6-6-6-6-6-6--|
D|-8-8--8-8-8-8----------------6-6-6-6-6-6-6-6-6-6-6-6--|
A|-8-8--8-8-8-8--4-4--4-4-4-4--4-4-4-4-4-4-3-3-3-3-3-3--|
E|-6-6--6-6-6-6--2-2--2-2-2-2---------------------------|
pm                             ........................

Then repeat intro part one again

Repeat Chorus

Bridge (its mainly bass)

Then repeat Chorus for last time


And thats It!!

Any comments, questions, or concerns, email me at semperxfix10@yahoo.com
comments
print report bad tab
14 comments total. Showing first comments.
0 reply
Julian K wrote on September 1 2006, 03:09 pm

wrong i have seen them play butim going to try ur tbab jeff plays the song capo on 6

0 reply
Julian K wrote on September 1 2006, 09:45 pm

it sucks basically everything is wrong

0 reply
semperxfix10 wrote on September 1 2006, 10:39 pm

If you know it then why are you looking up the tab, do it yourself

I want to post or [tab]
guest
You may want to rate the tab now too:
select rating
Please do not post tabs as comments. Select "correction" instead!