Oops, an error
Loading. Please wait.

Theres A Class For This tab

version 2
version 2

Whole song

Interactive

3,830 views 6 this week
7 commentsread comments
1 2 3 4 5
x 4
add to favorites
×
Save as Personal and add changes to this tab that will be seen only by you. Learn more ›
×
You can save this tab as Personal to edit and correct it or add notes. All changes will be seen only by you. Learn more »
launch autoscroll
font size
0
reset
how to read this tab
guitar tuner
backing track
0:00
0:00
edit
Autoscroll
slow
fast
+/-
esc
set tempo
stop
-------------------------------------------------------------------------------
                There's A Class For This - Cute Is What We Aim For
-------------------------------------------------------------------------------

e-mail: rileybrown10@hotmail.com

I haven't got the lead parts down this is just guitar 1.


Capo on the 6th fret

Tuning: Standard
Intro
e|---------------------------------------------------------------|
B|---------------------------------------------------------------|
G|---------------------------------------------------------------|
D|----22-22-----------22-22--------------2-2-2222----------------|
A|-22-33-33-22-222-22-33-33-222-2-2-2222-3-3-3333-222222222222---|
E|-33-------33-000-33-------333-0-0-0000----------333333000000---|

Verse 1
e|-------------------------|
B|-------------------------|
G|-------------------------|
D|-2--2--2--2--2--2--2--2--| x4
A|-3--3--3--3--3--3--3--3--|
E|-------------------------|

Pre-Chorus
e|--------------------------------|
B|--------------------------------|
G|--------------------------------|
D|----22-22-----------22-22-------|
A|-22-33-33-22-222-22-33-33-2222--|
E|-33-------33-000-33-------3333--|

Chorus
e|--------------------------------------|-------------------------------------|
B|--------------------------------------|-------------------------------------|
G|--------------------------------------|-------------------------------------|
D|-------------------22222222-44444444--|-2-2-2222----------------------------| x4
A|-77777777-22222222-33333333-55555555--|-3-3-3333-2-2-2222-22222222-22222222-|
E|-88888888-33333333--------------------|----------2-2-3333-33333333-00000000-|
                                             (play this on the last time)
                                         
Verse 2
e|------------------------|
B|------------------------|
G|------------------------|
D|-2--2--2--2--2--2--2--2-| x2
A|-3--3--3--3--3--3--3--3-|
E|------------------------|

e|------------------------------------------------------|
B|------------------------------------------------------|
G|------------------------------------------------------|
D|----------2-2-2222-2-2-2-2----------2-2-2222-2-2-2-2--|
A|-2-2-2222-3-3-3333-3-3-3-3-2-2-2222-3-3-3333-3-3-3-3--|
E|-3-3-3333------------------3-3-3333-------------------|

The bridge is mostly bass
but this is the end of it.
e|----------------------------|----|
B|----------------------------|----|
G|----------------------------|----|
D|----------22-22222-44-44444-|----| x4
A|-22-22222-33-33333-55-55555-|-2~-|
E|-33-33333-------------------|-3~-|
                              (on last time)

Repeat Chorus


| /  slide up
| \  slide down
| h  hammer-on
| p  pull-off
| ~  vibrato
| +  harmonic
| x  Mute note
=====================================

            
            
Suggest correction
Creating personal tab
Creating personal tab
You can edit any tab online and save it as your Personal.

You can edit, replace or remove any tab part or add personal notes – all changes will be seen only by you.

Personal tabs can be accessed anytime from any device, even offline.
Learn more »
comments
print report bad tab
7 comments total. Showing first comments.
0 reply
Julian K 82 Sep 06, 2006 01:59 PM

he plays it somewhat like this

0 reply
adslam3 1,342 Sep 10, 2006 01:31 PM

i try to figure this song out on my acoustic and i dont if this is right but the way i play the chorus is the following chord pattern with capo 6:
EADGBe
320033
3X0032
X30030
xx0232

0 reply
adslam3 1,342 Sep 10, 2006 01:32 PM

^^ thats supposed to say "i dont know if this is right..."
--this sounds nice to me ha

guest
You may want to rate the tab now too:
select rating
Wanna post a correction for this tab? Suggest correction