Oops, an error
Loading. Please wait.

Theres A Class For This tab

version 3
version 3

Whole song

Interactive

888 views 1 this week
2 commentsread comments
1 2 3 4 5
1 last vote to show rating
add to favorites
×
Save as Personal and add changes to this tab that will be seen only by you. Learn more ›
×
You can save this tab as Personal to edit and correct it or add notes. All changes will be seen only by you. Learn more »
launch autoscroll
font size
0
reset
how to read this tab
guitar tuner
backing track
0:00
0:00
edit
Autoscroll
slow
fast
+/-
esc
set tempo
stop
Author
Difficulty
I tried my best with this song. Some parts were a litte hard to hear, but I think I got most of them.


Intro

e|--------------------------------------------------------------------|
b|--------------------------------------------------------------------|
g|-66--66--66--66-666633--55--66--6666666--6-6-6666-6-6-6666-66666666-|
d|-xx--xx--xx--xx-xxxxxx--xx--xx--xxxxxxx--x-x-xxxx-x-x-xxxx-xxxxxxxx-|
a|-44--44--44--44-334411--33--44--4443344--4-4-4444-6-6-6666-44444444-|
E|--------------------------------------------------------------------|

e|------------|
b|------------|
g|-55555555---|
d|-xxxxxxxx---|
a|-33333333---|
E|------------|

Verse 1

e|--------------------------|
b|--------------------------|
g|-6--6--6--6--6--6--6--6---|
d|-x--x--x--x--x--x--x--x---|X4
a|-4--4--4--4--4--4--4--4---|
E|--------------------------|


Pre-Chorus

e|-------------------------------------------|
b|-------------------------------------------|
g|-66--66--66--66-666633--55--66--665556-----|
d|-xx--xx--xx--xx-xxxxxx--xx--xx--xxxxxx-----|
a|-44--44--44--44-334411--33--44--443334-----|
E|-------------------------------------------|


Chorus

e|-------------------------------------|
b|-------------------------------------|
g|-6666666666666666-6666666666666666---|
d|-6666666666666666-6666666666666666---| X4
a|-4444444444444444-3333333333333333---|
E|-4444444444444444-3333333333333333---|


Post Chorus

e|---------------------------------------|
b|---------------------------------------|
g|-6-6-666-8-8-888-6666666666666666------|
d|-x-x-xxx-x-x-xxx-xxxxxxxxxxxxxxxx------|
a|-4-4-444-6-6-666-4444444433333333------|
E|-------------------------55555555------|


Verse 2

e|--------------------------------------------------|
b|--------------------------------------------------|
g|-6-6-6-6-6-6-6-6-6-6-6-6-6-6-6-6-6-6666-8-8-8888--|
d|-x-x-x-x-x-x-x-x-x-x-x-x-x-x-x-x-x-xxxx-x-x-xxxx--|
a|-4-4-4-4-4-4-4-4-4-4-4-4-4-4-4-4-4-4444-6-6-6666--|
E|--------------------------------------------------|

e|-----------------------------|
b|-----------------------------|
g|-6-6-6--6-6-6666-8-8-8888----|
d|-x-x-x--x-x-xxxx-x-x-xxxx----|
a|-4-4-4--4-4-4444-6-6-6666----|
E|-----------------------------|

e|------------|
b|------------|
g|-6--6--6--6-|
d|-x--x--x--x-|
a|-4--4--4--4-|
E|------------|

Pre-Chorus

e|----------------------------------|
b|----------------------------------|
g|-66--66--66--66-666633--55--66--6-|
d|-xx--xx--xx--xx-xxxxxx--xx--xx--x-|
a|-44--44--44--44-334411--33--44--4-|
E|----------------------------------|

Chorus

e|-------------------------------------|
b|-------------------------------------|
g|-6666666666666666-6666666666666666---|
d|-6666666666666666-6666666666666666---| X4
a|-4444444444444444-3333333333333333---|
E|-4444444444444444-3333333333333333---|

Bridge

Guitar comes in at "So I gave..."
e|-----------------8888-88-8888-88--|
b|-----------------xxxx-xx-xxxx-xx--|
g|-6666-66-6666-66-xxxx-xx-xxxx-xx--|
d|-xxxx-xx-xxxx-xx-xxxx-xx-xxxx-xx--| X2
a|-4444-44-3333-33-6666-66-6666-66--|
E|----------------------------------|


Guitar 1
e|---------------------|
b|---------------------|
g|--1010101111111313---| X8  sorry about this one its:
d|----xxx--xxx---xx----|     10 10 10 11 11 11 13 13
a|----888--999--1111---|      x  x  x  x  x  x  x  x
E|---------------------|      8  8  8  9  9  9 11 11

Guitar 2
e|-----------------8888-88-8888-88--|
b|-----------------xxxx-xx-xxxx-xx--|
g|-6666-66-6666-66-xxxx-xx-xxxx-xx--|
d|-xxxx-xx-xxxx-xx-xxxx-xx-xxxx-xx--| X2
a|-4444-44-3333-33-6666-66-6666-66--|
E|----------------------------------|

e|-----|
b|-----|
g|--6--|
d|--x--| let it ring
a|--4--|
E|-----|

solo thing before the chorus

e|------------------11-9----|
b|---14-13---11-9-----------|
g|--------------------------|
d|--------------------------|
a|-9-------9------11--------|
E|--------------------------|

Chorus

e|-------------------------------------|
b|-------------------------------------|
g|-6666666666666666-6666666666666666---|
d|-6666666666666666-6666666666666666---| X4
a|-4444444444444444-3333333333333333---|
E|-4444444444444444-3333333333333333---|


end on

e|-----|
b|-----|
g|--6--|
d|--x--|
a|--4--|
E|-----|


Ok i'm done I hope you enjoy.

            
            
Suggest correction
Creating personal tab
Creating personal tab
You can edit any tab online and save it as your Personal.

You can edit, replace or remove any tab part or add personal notes – all changes will be seen only by you.

Personal tabs can be accessed anytime from any device, even offline.
Learn more »
Give kudos to tab author, rate the tab!
1 2 3 4 5
comments
print report bad tab
2 comments total.
0 reply
stumaster18 514 Dec 29, 2006 08:09 PM

theres a capo used. completely wrong. watch the video for this song and start over.

0 reply
hippy82 10 May 24, 2007 10:36 AM

inaccurate

guest
You may want to rate the tab now too:
select rating
Wanna post a correction for this tab? Suggest correction