Oops, an error
Loading. Please wait.

Time tab

version 2
version 2

Whole song

22,040 views 1 this week
3 commentsread comments
1 2 3 4 5
x 8
add to favorites
×
Save as Personal and add changes to this tab that will be seen only by you. Learn more ›
×
You can save this tab as Personal to edit and correct it or add notes. All changes will be seen only by you. Learn more »
launch autoscroll
font size
0
reset
how to read this tab
guitar tuner
edit
Autoscroll
slow
fast
+/-
esc
set tempo
stop
-------------------------------------------------------------------------------
                              Time - Cute Is What We Aim For
-------------------------------------------------------------------------------
Tabbed by: Sean Hummer
Email: allstar21369@hotmail.com

Tuning: Drop C# (Flat (Half-Step down) and Drop D (so the high E is down a step and a 
half from standard))
Db Ab Db Gb Bb eb


Intro/Verse Riff-
eb|--------------------------------------------------------------------------|
Bb|--------------------------------------------------------------------------|
Gb|----7-------7-------7-------7---------------------------------------------|
Db|--7---7---7---7---7---7---7---7-------------------------------------------|
Ab|------------------------0-------------------------------------------------|
Db|0-------4-------5---------------------------------------------------------|


Chorus-
eb|--------------------------------------------------------------------------|
Bb|--------------------------------------------------------------------------|
Gb|7-------7----------7-------7-------7--------------------------------------|
Db|7--x8---7--x8------7--x4---7--x4---7--x8----------------------------------|
Ab|5-------0----------5-------5-------5--------------------------------------|
Db|5-------7----------0-------4-------5--------------------------------------|


Bridge-
eb|--------------------------------------------------------------------------|
Bb|--------------------------------------------------------------------------|
Gb|--------7-----------------------------------------------------------------|
Db|9-------7-------7-------5-------------------------------------------------|
Ab|9--x8---5--x8---7--x8---5--x8---------------------------------------------|
Db|9---------------7-------5-------------------------------------------------|


| /  slide up
| \  slide down
| h  hammer-on
| p  pull-off
| ~  vibrato
| +  harmonic
| x  Mute note
===============================================================================

            
            
Suggest correction
Creating personal tab
Creating personal tab
You can edit any tab online and save it as your Personal.

You can edit, replace or remove any tab part or add personal notes – all changes will be seen only by you.

Personal tabs can be accessed anytime from any device, even offline.
Learn more »
comments
print report bad tab
3 comments total.
0 reply
Hairball135 89 Jun 26, 2008 11:42 AM

this is exactly how i play it

0 reply
LewisMasonx 1,741 Jun 27, 2008 09:39 AM

Great tab :)

0 reply
allstar21369 652 Jul 30, 2008 08:43 AM

The tab below is another way to play this song which doesn't require you to tune your low E string down. It's not 100% accurate (the D flat notes are an octave high) but it's easier to tune for in that it's essentially just G-chord variations.

Tuning: Flat (Half-Step down)

Intro/Verse Riff-
eb|-------------------------------------------|
Bb|----3-------3-------3-------3--------------|
Gb|--2---2---2---2---2---2---2---2------------|
Db|0------------------------------------------|
Ab|------------------------0------------------|
Eb|--------2-------3--------------------------|

Chorus-
eb|-------------------------------------------|
Bb|3-------3----------3-------3-------3-------|
Gb|2-------2----------2-------2-------2-------|
Db|0--x8---x--x8------0--x4---0--x4---0--x8---|
Ab|x-------0------------------x-------x-------|
Eb|3--------------------------2-------3-------|

Bridge- (Initially Palm-Muted)
eb|-------------------------------------------|
Bb|--------3-------3-------3------------------|
Gb|4-------2-------2-------0------------------|
Db|4--x8---0--x8---2--x8---0--x8--------------|
Ab|2---------------0-------x------------------|
Eb|------------------------3------------------|

guest
You may want to rate the tab now too:
select rating
Wanna post a correction for this tab? Suggest correction