Oops, an error
Loading. Please wait.

I Just Died In Your Arms Tonight tab

74,575 views 105 this week
1 commentread comment
1 2 3 4 5
x 10
add to favorites
×
Save as Personal and add changes to this tab that will be seen only by you. Learn more ›
×
You can save this tab as Personal to edit and correct it or add notes. All changes will be seen only by you. Learn more »
launch autoscroll
font size
0
reset
how to read this tab
guitar tuner
edit
Autoscroll
slow
fast
+/-
esc
set tempo
stop
Author
Difficulty
Unregistered
intermediate
I Just Died in Your Arms Tonight - Cutting Crew (1987)
Tabs by Stephen Cronin cronin@mgm.mit.edu
Web site: www.nodecember.com

[Intro]
e|---------------------------------------------------------------------------------|
B|-----7-7-7-7-7-7-7-7--10-10-10-8-8—8--7-7-7--5-5-5-------------7-7-7-------------|
G|-----7-7-7-7-7-7-7-7--11-11-11-9-9-9--7-7-7--6-6-6--6-6-6-6-6--6-6-6-6-6-6-6-6---|
D|----------------------------------------------------7-7-7-7-7--------8-8-8-8-8---|
A|---------------------------------------------------------------------------------|
E|---------------------------------------------------------------------------------|

I, I just died in your arms tonight
It must been something you said
I just died in your arms tonight...

  Bm
e|-------5------5-7-2-------------|
B|---2-3----2-3-------------------|
G|--------------------------------|
D|--------------------------------|
A|--------------------------------|
E|--------------------------------|

[Verse]
Bm
   I keep looking for someone thing I can't get
G
   Broken hearts lie all around me and I
A                                     F#
don't see an easy way      to get out  of this
Bm
Her diary it sits by the bedside table.
G
The curtains are closed, the cat's in the cradle.
A                                             F#
Who would've though that a boy like me could come to this

Oh  Oh Oh Oh

  lead in...
e|--------------|
B|--------------|
G|--2-2---2-2---|
D|--2-2---2-2---|
A|------4-----4-|
E|--------------|

 [Chorus]                             alternate between this ending and lead in
e|----2-----|----------|------0-0-----|---------|
B|----3-3---|----0---- |----------20--|---------|
G|---4---4--|----0-----|---1/2------2-|---------|
D|--4-----4-|---2---2--|--2-----------|-434342--|
A|-2--------|--2-----2-|-0------------|-------5-|
E|----------|-0--------|--------------|---------|

[Chorus]
Bm         Em                   A    F#m
I, I just died in your arms tonight. It must've been something you said                  
         Bm         Em                   A     F#m
   I just died in your arms tonight,            Oh Oh Oh
Bm          Em                    A             F#m
(I) I just died in your arms tonight, It must've been some kind of
Bm            F#m                        F#m
Kiss.   I  should've walked away, I should’ve walked away
Gmaj7
I should've walked away

e|-7-7---5-5----------------7-| -------5--|
B|----7-7---5-5-7-7---------7-| ---2-3----|
G|-----------------7-7-9-7-7--| ----------|
D|------------------------9---| ----------|
A|----------------------------| ----------|
E|----------------------------| ----------|

[Verse 2] (Bm G A F#)
Is there any just cause for feeling like this?
On the surface I'm a name on a  list
I try to be discreet, then blow it again
I've lost and found, it's my final mistake ,
She's loving by proxy, no give and all take,
'Cause I've been thrilled to fantasy one too many times

[Chorus]
Bm         Em                   A    F#m
I, I just died in your arms tonight. It must've been something you said                  
         Bm         Em                   A     F#m
   I just died in your arms tonight,            Oh Oh Oh
Bm          Em                    A             F#m
(I) I just died in your arms tonight, It must've been some kind of
Bm            F#m                        F#m
Kiss.   I  should've walked away, I should’ve walked away
Gmaj7
I should've walked away

e|-7-7---5-5----------------7-| -------5--|
B|----7-7---5-5-7-7---------7-| ---2-3----|
G|-----------------7-7-9-7-7--| ----------|
D|------------------------9---| ----------|
A|----------------------------| ----------|
E|----------------------------| ----------|

[Bridge]
G
   It was a     long hot night
Em
She made it easy. She make it feel right
G
But now it's over the moment has gone I
F#           Bm             F#
follwed my hands -- not my head -- I know I was wrong

[Solo]
e|-14--------12-------------------------------------------------------------|
B|---12-12-----10------------------3-5-3-5-3-3------------------------------|
G|----------------2\1/2-4^4^-4^-2-4-4-4-4-4---4-6-4-2-2---------------------|
D|--------12------2\1/2------------------------------4-4-2-0-2-0---0--------|
A|----------------------------------------------------------4---4-2-4-2-0-2-|
E|--------------------------------------------------------------------------|

 [Breakdown] (same as intro)
e|---------------------------------------------------------------------------|
B|-----7-7-7-7-7-7-7-7-10-10-10-8-8—8-7-7-7--5-5-5-------5---7-7-7------7----|
G|-----7-7-7-7-7-7-7-7-11-11-11-9-9-9-7-7-7--6-6-6-6-6-6-6-6-6-6-6-6-6-6-6-6-|
D|-------------------------------------------------7-7-7---7-------8-8-8--9--|
A|---------------------------------------------------------------------------|
E|---------------------------------------------------------------------------|

I, I just died in your arms tonight
It must been something you said
I just died in your arms tonight...

  lead in...
e|--------------|
B|--------------|
G|--2-2---2-2---|
D|--2-2---2-2---|
A|------4-----4-|
E|--------------|

[Chorus]
Bm         Em                   A    F#m
I, I just died in your arms tonight. It must've been something you said                  
         Bm         Em                   A     F#m
   I just died in your arms tonight,            Oh Oh Oh
Bm          Em                    A             F#m
(I) I just died in your arms tonight, It must've been some kind of
Bm            F#m                        F#m
Kiss.   I  should've walked away, I should’ve walked away
Gmaj7
I should've walked away

e|-7-7---5-5----------------7-| -------5--|
B|----7-7---5-5-7-7---------7-| ---2-3----|
G|-----------------7-7-9-7-7--| ----------|
D|------------------------9---| ----------|
A|----------------------------| ----------|
E|----------------------------| ----------|

************************************

| /  Slide up
| \  Slide down

************************************

            
            
Suggest correction
Creating personal tab
Creating personal tab
You can edit any tab online and save it as your Personal.

You can edit, replace or remove any tab part or add personal notes – all changes will be seen only by you.

Personal tabs can be accessed anytime from any device, even offline.
Learn more »
comments
print report bad tab
1 comment total.
0 reply
yes_i_do 10 Oct 28, 2016 08:22 AM

Good tab, solo is better than the other one

guest
Wanna post a correction for this tab? Suggest correction