Oops, an error
Loading. Please wait.

You Make Me Want To Listen tab

1,116 views 1 this week
1 commentread comment
1 2 3 4 5
x 3
add to favorites
×
Save as Personal and add changes to this tab that will be seen only by you. Learn more ›
×
You can save this tab as Personal to edit and correct it or add notes. All changes will be seen only by you. Learn more »
launch autoscroll
font size
0
reset
how to read this tab
guitar tuner
edit
Autoscroll
slow
fast
+/-
esc
set tempo
stop
Author
-------------------------------------------------------------------------------
                             SONG NAME - Band Name
-------------------------------------------------------------------------------
Tabbed by: animaddiex
E-mail: animaddiex@gmail.com

Tuning: Standard EADGBe

Repeated through the entire song.
e|---------------------------------------------------------------------------|
B|---------------------------------------------------------------------------|
G|-----8---8---8---8---8---8---8---8---8---8---8---8---8---8---8---8---------|
D|------9---9---9---9---9---9---9---9---9---9---9---9---9---9---9---9--------|
A|-----7-------7-------------------------------------------------------------|
E|---------------------9-------9-------7-------7-------7-------6-------------|

Lyrics:

holding my breath 
i can’t write anymore without feeing ashamed 
kind of embarrassed of everything that i say 
but not much around you 
i think you know how to listen and off your tongue rolls words 
that pull my teeth into some silly kind of silly simper 
didn’t even know i was smiling 
and i’m embarrassed again. 
when we talk i feel so fine, the other day i wanted to cry 
because i’ve never felt that calm in a long while. 
people just make my head feel wired, i’m always stressing 
about what to say 
but with you, 
my words have a place to stay 
and yours can stay with me.

Quite simple once you get the hang of it. Please correct if I'm wrong and enjoy. :)
Suggest correction
Creating personal tab
Creating personal tab
You can edit any tab online and save it as your Personal.

You can edit, replace or remove any tab part or add personal notes – all changes will be seen only by you.

Personal tabs can be accessed anytime from any device, even offline.
Learn more »
Give kudos to tab author, rate the tab!
1 2 3 4 5
comments
print report bad tab
1 comment total.
0 reply
claw00 10 Jul 07, 2015 08:09 PM

It's easier to play 7th fret on the a string instead of 12 on e.

guest
You may want to rate the tab now too:
select rating
Wanna post a correction for this tab? Suggest correction