Oops, an error
Loading. Please wait.

No Stress Tab

3,370 views 3 this week
no commentswrite comment
1 2 3 4 5
1 last vote to show rating
add to favorites
launch autoscroll
font size
0
reset
how to read this tab
guitar tuner
Autoscroll
slow
fast
+/-
esc
set tempo
stop
Help us to improve Ultimate-Guitar.com Take our survey!
×
Author
Band: Cyclefly
Song: No Stress
Album: Crave
Tabbed by: James Player (heavy_metal_aint_noise_pollution@hotmail.com)


Intro/verse
E|----------------------------------|
B|----------------------------------|
G|---x-x-7-7---x-x-7-7--------------|
D|---x-x-7-7---x-x-7-7--------------|
A|---x-x-5-5---x-x-5-5--------------|
E|----------------------------------|

Pre-chorus
E|----------------------------------|
B|----------------------------------|
G|--7-------------------------------|
D|--7—x12------3--------------------|
A|--5----------3-x12----------------|
E|-------------1--------------------|

First Chorus
E|-------------------------------------------------------|
B|-------------------------------------------------------|
G|--3-3-3-3-3-3------------------------------------------|
D|--3-3-3-3-3-3---3-3-3-3-3-3---5-5-5-5-5-5-5-5-5-5-5-5--|
A|--1-1-1-1-1-1---3-3-3-3-3-3---5-5-5-5-5-5-5-5-5-5-5-5--|
E|----------------1-1-1-1-1-1---3-3-3-3-3-3-3-3-3-3-3-3--|

E|----------------------------------|
B|----------------------------------|
G|---3-3-3-3-3-3--------------------|
D|---3-3-3-3-3-3---3-3-3-3-3-3------|
A|---1-1-1-1-1-1---3-3-3-3-3-3------|
E|-----------------1-1-1-1-1-1------|


Second Chorus
E|-------------------------------------------------------|
B|-------------------------------------------------------|
G|--3-3-3-3-3-3------------------------------------------|
D|--3-3-3-3-3-3---3-3-3-3-3-3---5-5-5-5-5-5-5-5-5-5-5-5--|
A|--1-1-1-1-1-1---3-3-3-3-3-3---5-5-5-5-5-5-5-5-5-5-5-5--|
E|----------------1-1-1-1-1-1---3-3-3-3-3-3-3-3-3-3-3-3--|

E|---------------------------------------------------------|
B|---------------------------------------------------------|
G|--3-3-3-3-3-3-----------------5-5-5-5-5-5---3-3-3-3-3-3--|
D|--3-3-3-3-3-3---3-3-3-3-3-3---5-5-5-5-5-5---3-3-3-3-3-3--|
A|--1-1-1-1-1-1---3-3-3-3-3-3---3-3-3-3-3-3---1-1-1-1-1-1--|
E|----------------1-1-1-1-1-1------------------------------|


Interlude
E|----------------------------------|
B|----------------------------------|
G|--7777777777777777777777777-------|
D|----------------------------------|
A|----------------------------------|
E|----------------------------------|

Song Order:
Intro
Pre-chorus
First Chorus
Verse
Pre-chorus
Second Chorus 
Interlude
Pre-chorus
Second Chorus
Suggest correction
Give kudos to tab author, rate the tab!
1 2 3 4 5
comments
print report bad tab
guest
You may want to rate the tab now too:
select rating
Wanna post a correction for this tab? Suggest correction