Oops, an error
Loading. Please wait.

Girls Just Want To Have Fun Bass Tab

version 1
version 1

Whole song

Interactive

15,142 views 66 this week
no commentswrite comment
1 2 3 4 5
x 4
add to favorites
launch autoscroll
font size
0
reset
guitar tuner
Autoscroll
slow
fast
+/-
esc
set tempo
stop
Help us to improve Ultimate-Guitar.com Take our survey!
×
Author
Difficulty
novice
Been working on this all afternoon, my first tab so dont be too harsh on the comments ;)
ENJOY x

[Intro/Break] x2
G|-------------------------------------------------------------------------------|
D|-------------------------------------------------------------------------------|
A|-------------1-4--6--6-6--6--6-2-4---------------------------------------------|
E|2--2-2--2--2-------------------------------------------------------------------|

[Verse 1]
G|-------------------------------------------------------------------------------|
D|-------------------------------------------------------------------------------|
A|-------------1-4--6--6-6--6--6-6-4---------------------------------------------|
E|2--2-2--2--2-------------------------------------------------------------------|

G|-------------------------------------------------------------------------------|
D|-------------------------------------------------------------------------------|
A|2--2-2--2--2-2-4--6--6-4--4-2--2-2-4----6--6-4--4------------------------------|
E|-------------------------------------------------------------------------------|

[Intro/Break] x1
G|-------------------------------------------------------------------------------|
D|-------------------------------------------------------------------------------|
A|-------------1-4--6--6-6--6--6-2-4---------------------------------------------|
E|2--2-2--2--2-------------------------------------------------------------------|

[Verse 2]
G|-------------------------------------------------------------------------------|
D|-------------------------------------------------------------------------------|
A|-------------1-4--6--6-6--6--6-6-4---------------------------------------------|
E|2--2-2--2--2-------------------------------------------------------------------|

G|-------------------------------------------------------------------------------|
D|----------------------------------6-4------------------------------------------|
A|2--2-2--2--2-2-4--6--6-4--4-2--2--------6--6-4--4------------------------------|
E|-------------------------------------------------------------------------------|

[Chorus]
G|-------------------------------------------------------------------------------|
D|4-------4-------4-------4------------------------------------------------------|
A|---4-6-----4-6-----4-6-----4----6-------6-------6-------6----------------------|
E|-----------------------------------6-4-----6-4-----6-4-----6-------------------|

[Outro]
G|-------------------------------------------------------------------------------|
D|----------------------------------6-4------------------------------------------|
A|-------------1-4--6--6-4--4-2--2---------6--6-4--4-----------------------------|
E|2--2-2--2--2-------------------------------------------------------------------|

[Intro/Break] x3
G|-------------------------------------------------------------------------------|
D|-------------------------------------------------------------------------------|
A|-------------1-4--6--6-6--6--6-2-4---------------------------------------------|
E|2--2-2--2--2-------------------------------------------------------------------|

[Verse 2]
G|-------------------------------------------------------------------------------|
D|-------------------------------------------------------------------------------|
A|-------------1-4--6--6-6--6--6-6-4---------------------------------------------|
E|2--2-2--2--2-------------------------------------------------------------------|

G|-------------------------------------------------------------------------------|
D|----------------------------------6-4------------------------------------------|
A|2--2-2--2--2-2-4--6--6-4--4-2--2--------6--6-4--4------------------------------|
E|-------------------------------------------------------------------------------|

[Chorus]
G|-------------------------------------------------------------------------------|
D|4-------4-------4-------4------------------------------------------------------|
A|---4-6-----4-6-----4-6-----4----6-------6-------6-------6----------------------|
E|-----------------------------------6-4-----6-4-----6-4-----6-------------------|

[Outro]
G|-------------------------------------------------------------------------------|
D|----------------------------------6-4------------------------------------------|
A|-------------1-4--6--6-4--4-2--2---------6--6-4--4-----------------------------|
E|2--2-2--2--2-------------------------------------------------------------------|

[Intro/Break] x3
G|-------------------------------------------------------------------------------|
D|-------------------------------------------------------------------------------|
A|-------------1-4--6--6-6--6--6-2-4---------------------------------------------|
E|2--2-2--2--2-------------------------------------------------------------------|
Suggest correction
comments
print report bad tab
guest
You may want to rate the tab now too:
select rating
Wanna post a correction for this tab? Suggest correction