Oops, an error
Loading. Please wait.

Girls Just Want To Have Fun intro tab

version 1
version 1

Intro

Whole song

Interactive

20,989 views 1 this week
2 commentsread comments
1 2 3 4 5
1 last vote to show rating
add to favorites
×
Save as Personal and add changes to this tab that will be seen only by you. Learn more ›
×
You can save this tab as Personal to edit and correct it or add notes. All changes will be seen only by you. Learn more »
launch autoscroll
font size
0
reset
how to read this tab
guitar tuner
edit
Autoscroll
slow
fast
+/-
esc
set tempo
stop
This is the intro part. Hope you like it


ARTIST: Cyndi Lauper
SONG: Girls Just Want To Have Fun
TABBED BY: GuitarMooGirl22

e|--------------------------------------------------------|
B|--11h12--11------11--11h12--11------11------------------|
G|--11---------13------11---------13------13--------------|
D|--------------------------------------------------------|
A|--------------------------------------------------------|
E|--------------------------------------------------------|

Repeat 2x


Thats it. The whole guitar song during the verses and chorus is tough to figure out. but 
is the beginning. enjoy!

| /  slide up
| \  slide down
| h  hammer-on
| p  pull-off
| ~  vibrato
| +  harmonic
| x  Mute note
============================================================================

            
            
Suggest correction
Creating personal tab
Creating personal tab
You can edit any tab online and save it as your Personal.

You can edit, replace or remove any tab part or add personal notes – all changes will be seen only by you.

Personal tabs can be accessed anytime from any device, even offline.
Learn more »
Give kudos to tab author, rate the tab!
1 2 3 4 5
comments
print report bad tab
2 comments total.
0 reply
sl0e 10 Sep 19, 2008 02:28 PM

its one of the simplest things yet this tab is awful. i'll tab it out myself. starts with Dmin on the 10 fret basically a most stupid lick

0 reply
DonD 360 Aug 21, 2016 02:58 PM

MAIN RIFF

| F#.................................|D#m........................ |
e|-----------------------------------------------------------------|
b|-9h11-11--9--11---9h11-11--9--11--9---7---7--7-7--7---7--7-7--9--|
g|-11---11--11-11---11---11--11-11--10--6h8-8--6-8--6h8-8--6-8--10-|
d|-----------------------------------------------------------------|
a|-----------------------------------------------------------------|
E|-----------------------------------------------------------------|

guest
You may want to rate the tab now too:
select rating
Wanna post a correction for this tab? Suggest correction