Oops, an error
Loading. Please wait.
We have Chord Pro version of Time After Time.
It's the closest thing you can get to the original song and it has interactive parts. Check out the tab »
×

Time After Time chords

38,761 views 663 this week
4 commentsread comments
1 2 3 4 5
x 11
add to favorites
×
Save as Personal and add changes to this tab that will be seen only by you. Learn more ›
×
You can save this tab as Personal to edit and correct it or add notes. All changes will be seen only by you. Learn more »
launch autoscroll
font size
0
reset
transpose
0
reset
simplify chords
display chords
guitar tuner
backing track
0:00
0:00
edit
Autoscroll
slow
fast
+/-
esc
set tempo
stop
Author
Difficulty
Strumming
There is no strumming pattern for this song yet. and get +5 IQ
I remembered it all, finally! Dunno the writing credits...

                  TIME AFTER TIME
                  ===============

   F6   F/G 
e--------1--|
B---3----1--|
G---2----2--|
D---3----3--|
A---3----x--|
E--------3--|

Intro:  F   G   Em   F       G  Em  F

 F6   C      F6    C         F6   C        F6       C
Lyin' in my bed I hear the clock tick and think of you
 F6    C      F6 C       F6 C      F6      C
Caught up in circles confusion is nothing new
 F     G   Em    F             G      Em
Flash back warm nights almost left behind
 F   G       Em  F         F/G
Suitcase of memories, time after...

Sometimes you picture me I'm walkin' too far ahead
You're calling to me, I can't hear what you've said
You say go slow I fall behind
The second hand unwinds

             G                        Am
  If you're lost you can look and you will find me
  F    F/G    C
  Time after time
          G                         Am
  If you fall I will catch you I'll be waiting
  F    F/G    C
  Time after time

   F             G             Em              F
e|-------8---7---------5---3---------5---3---------------------|
B|-----6-------------3-------------0-------6-5-3-5-------------|
G|---5-------------4-------------0-----------------5-----------|
D|-------------------------------------------------------------|
A|-------------------------------------------------------------|
E|-------------------------------------------------------------|

e|-------8---7---------5---3---------5---3---------------------|
B|-----6-------------3-------------0-------6-5-3-5------3-5----|
G|---5-------------4-------------0-----------------5--------5--|
D|-------------------------------------------------------------|
A|-------------------------------------------------------------|
E|-------------------------------------------------------------|


After my picture fades and darkness has turned to grey
Watchin' through windows you're wondering if I'm okay
Secrets stolen from deep inside
The drum beats out of time

Chorus (2x)



You say go slow I fall behind
The drum beats out of time

Chorus (2x)

F    F/G    C
Time after time...
Time after time...
Time after time...
# # # # # # # # # # # # # # # # # # # # # # # # # # # # # # # # # # # # # #
# Walter Ian Kaye: (602) 942-6390  FoxPro/Excel Programmer; Guitarist     #
# Correspond to:   boodlums@genie.geis.com or boo@primenet.com            #
# BinHex files:    boo@primenet.com   WWW: http://www.primenet.com/~boo/  #
# # # # # # # # # # # # # # # # # # # # # # # # # # # # # # # # # # # # # #

            
            
Suggest correction
Creating personal tab
Creating personal tab
You can edit any tab online and save it as your Personal.

You can edit, replace or remove any tab part or add personal notes – all changes will be seen only by you.

Personal tabs can be accessed anytime from any device, even offline.
Learn more »
comments
print report bad tab
4 comments total. Showing first comments.
+1 reply
Monsty 100 Apr 01, 2012 04:38 AM

Am7 (x02013) sounds better than Am.

+1 reply
Monsty 100 Apr 01, 2012 04:48 AM

Yes, F6 is probably the correct chord, but F is much easier.
Other than that it's very good tab and I've given it 5 stars.
Well done !-)

0 reply
xanderko 16 Jul 04, 2017 10:25 AM

I use Dmi instead of F6 and sounds ok as well.

guest
You may want to rate the tab now too:
select rating
Wanna post a correction for this tab? Suggest correction