Oops, an error
Loading. Please wait.

True Colors Tab

version 1
version 1

Whole song

Interactive

222,386 views 585 this week
6 commentsread comments
1 2 3 4 5
x 49
add to favorites
launch autoscroll
font size
0
reset
how to read this tab
guitar tuner
Autoscroll
slow
fast
+/-
esc
set tempo
stop
Help us to improve Ultimate-Guitar.com Take our survey!
×
Author
[Verse 1]
                                                          You with the
e|3-----3-3-----3-|3---------------|3-----3-3-----3-|3---------------|
B|--0-1-----0-1---|--0-1-------0-1-|--0-1-----0-1---|--0-1-----------|
G|----------------|------2---------|----------------|------2---------|
D|----------------|----------------|----------------|----------------|
A|0-----0-2-----2-|3---------------|0-----0-2-----2-|3---------------|
E|----------------|------1---1-----|----------------|------1---------|

  sad     eyes     don't....                                     In a
e|0-------3-------|0-1-3-3-----0---|3-----1-----0---|0---------------|
B|1-------3-------|1-----1-------1-|--------------3-|1-----3---------|
G|2-------4-------|0-----0---0-----|----------------|------0---------|
D|----------------|----------------|----------------|----------------|
A|0-------2-------|3---------------|----------------|0---------------|
E|----------------|------0-------0-|1---------------|------3---------|

  world....                         darkness....           But I'll see..
e|----------------|----------------|0---------------|----------------|
B|5-----5-6-----6-|8-----10----8---|1-----3---------|3-------1-------|
G|----5-------7---|----9-10--------|2-----4---------|----------------|
D|--5-------7-----|--9---10--------|------5---------|3-------2-------|
A|3-------5-------|7-----8---------|----------------|3-------3-------|
E|----------------|----------------|----------------|----------------|

  True  Colors....                  True Colors..and that's...
e|1-----0---------|3-----3---------|1-----0---------|1-----3-----3---|
B|1-----1---------|1---1-0-----0-3-|1-----1-------1-|1---1-1-----0---|
G|2---2-0-----0---|--0-------0-----|2---2-0-----0---|--2-------0-----|
D|--3-------2-----|----------------|--3-------2-----|----------------|
A|------3-------3-|----------------|----------------|----------------|
E|1---------------|3-----3---------|1-----0---------|1-----3-----3---|

   don't be afraid....              True colors      True colors
e|----------------|----------------|----------------|----------------|
B|--3-1-1---------|--3-1-1---------|----------------|----1-----------|
G|2---2-0-----0---|2-----2---------|--0---0---------|--2---0---------|
D|--3-------2-----|3---------------|3-----2-------2-|3-----2---------|
A|------3-------3-|------0---------|3-----3---------|3-----3---------|
E|1---------------|1---------------|----------------|----------------|

 beautiful..like a
e|3---------------|
B|3---------------|
G|5---------------|
D|----------------|
A|----------------|
E|3---------------|

  rainbow.....                                               Show me a
e|3-----3-3-----3-|3---------------|3-----3-3-----3-|3---------------|
B|--0-1-----0-1---|--0-1-----0-1---|--0-1-----0-1---|--0-1-----------|
G|----------------|------2-------2-|----------------|------2---------|
D|----------------|----------------|----------------|----------------|
A|0-----0-2-----2-|3---------------|0-----0-2-----2-|3---------------|
E|----------------|------1-------1-|----------------|------1---------|


[Verse 2]

  smile   then     Don't be....     remember...      last saw....    If
e|0-------3-------|0-1-3-3-----0-3-|3-----1-----0---|0---------------|
B|1-------3-------|1-----1---------|--------------3-|1-----3-----0-3-|
G|2-------4-------|0-----0---0-----|----------2-----|------0---0-----|
D|----------------|----------------|----------------|----------------|
A|0-------2-------|3---------------|----------------|0---------------|
E|----------------|------0---------|1---------------|------3---------|

  this world...                     You call...      know...  I'll see..
e|----------------|----------------|0---------------|----------------|
B|5-----5-6-----6-|8-----10----8---|1-----3---------|3-------1-------|
G|----5-------7---|----9-10--------|2-----4---------|----------------|
D|--5-------7-----|--9---10--------|------5---------|3-------2-------|
A|3-------5-------|7-----8---------|----------------|3-------3-------|
E|----------------|----------------|----------------|----------------|

  True  Colors....                  True Colors..and that's...
e|1-----0---------|3-----3---------|1-----0---------|1-----3-----3---|
B|1-----1---------|1---1-0-----0-3-|1-----1-------1-|1---1-1-----3---|
G|2---2-0-----0---|--0-------0-----|2---2-0-----0---|--2-------0---0-|
D|--3-------2-----|----------------|--3-------2-----|----------------|
A|------3-------3-|----------------|----------------|----------------|
E|1---------------|3-----3---------|1-----0---------|1-----3-----3---|

  don't be afraid....              True colors      True colors
e|----------------|----------------|----------------|----------------|
B|1-----1-------1-|1-----1---------|1-----1-------1-|1-----1---------|
G|2---2-0-----0---|2---3-2-----2---|2-----0-----0---|2-----0-----0---|
D|--3-------2-----|--3-------------|3-----2---2-----|3-----2---2-----|
A|------3-------3-|------0---------|3-----3---------|3-----3-------3-|
E|1---------------|1---------------|----------------|----------------|

  Beautiful...
e|3---------------|
B|3---------------|
G|5---------------|
D|----------------|
A|----------------|
E|3---------------|

 Rainbow....
e|3-----3-3-----3-|3---------------|3-----3-3-----3-|3---------------|
B|--0-1-----0-1---|--0-1-----0-1---|--0-1-----0-1---|--0-1-----0-1---|
G|----------------|------2-------2-|----------------|------2-------2-|
D|----------------|----------------|----------------|----------------|
A|0-----0-2-----2-|3---------------|0-----0-2-----2-|3---------------|
E|----------------|------1-------1-|----------------|------1-------1-|


[Verse 3]

  Ooo...                            Can't remember...               If
e|0-------3-------|0-----3---------|3-----1-----0---|0---------------|
B|1-------3-------|1-----3---------|--------------3-|1-----3---------|
G|2-------4-------|0-----5---------|----------------|------0---------|
D|----------------|----------------|----------------|----------------|
A|0-------2-------|3---------------|----------------|0---------------|
E|----------------|------0---------|1---------------|------3---------|

 if this world..                         call me...     know...  I'll..
e|----------------|----------------|0---------------|----------------|
B|5-----5-6-----6-|8-----10----8---|1-----3-------3-|1-------1-------|
G|----5-------7---|----9-10--------|2---2-4-----4---|----------------|
D|--5-------7-----|--9---10--------|------5---5-----|3-------2-------|
A|3-------5-------|7-----8---------|----------------|3-------3-------|
E|----------------|----------------|----------------|----------------|


  True  Colors....                  True Colors..and that's...
e|1-----0---------|3-----3---------|1-----0---------|1-----3-----3---|
B|1-----1-------1-|1---1-0-----0-3-|1-----1-------1-|1---1-1-----3---|
G|2---2-0-----0---|--0-------0-----|2---2-0-----0---|--2-------0---0-|
D|--3-------2-----|----------------|--3-------2-----|----------------|
A|------3---------|----------------|----------------|----------------|
E|1---------------|3-----3---------|1-----0---------|1-----3-----3---|

  don't be afraid....              True colors      True colors
e|----------------|----------------|----------------|----------------|
B|1-----1---------|1-----1---------|1-----1-------1-|1-----1---------|
G|2---2-0-----0---|2---3-2-----2---|2---2-0-----0---|2---2-0-----0---|
D|--3-------2-----|--3-------------|3-3---2---2-----|3-3---2---2-----|
A|------3-------3-|------0---------|3-----3-------3-|3-----3-------3-|
E|1---------------|1---------------|----------------|----------------|

  True colors..    shining through..True colors...and that's....
e|----------------|----------------|1---------3-----|1-------3---3---|
B|1-----1-----1---|1-----0-----0-3-|1-----1---1-----|1-------1---0---|
G|2---2-0---2-----|2---2-0---0-----|2---2-0---0---0-|2---2-----0---0-|
D|3-3---2---------|--3-------------|--3---2---------|--3-------------|
A|3-----3-3-------|----------------|----------------|----------------|
E|----------------|3-----3-------3-|1-----0---3-----|1-----1-3---3---|

  Don't be....     let them show..  True colors      True colors...
e|1-----0---------|----------------|----------------|----------------|
B|1-----1---------|0-----1---------|1-----1---------|1-----1---------|
G|2---2-0---------|1-----2---------|2-----0---------|2-----0---------|
D|--3-------------|2-----2---------|3-----2---------|3-----2---------|
A|------3---------|------0---------|3-----3---------|3-----3---------|
E|1---------------|0---------------|----------------|----------------|

  Beautiful...           Like a rainbow
e|3---------------|----------------|3-----3-3-----3-|0h1-0-----------||
B|3---------------|----------------|--0-1-----0-1---|------3-1-------||
G|5---------------|----------------|----------------|--------2-------||
D|----------------|----------------|----------------|----------------||
A|----------------|----------------|0-----0-2-----2-|3---------------||
E|3---------------|----------------|----------------|--------1-------||


Lyrics:


[Verse 1]

You with the sad eyes
Don't be discouraged
Oh I realize
It's hard to take courage
In a world full of people
You can lose sight of it all
And the darkness inside you
Make you feel so small


[Chorus]

But I'll see your true colors
Shining through
I'll see your true colors
And that's why I love you
So don't be afraid to let them show
Your true colors
True colors are beautiful,
Like a Rainbow


[Verse 2]

Show me a smile then,
Don't be unhappy, can't remember
When I last saw you laughing
If this world makes you crazy
And you've taken all you can bear
You call me up
Because you know I'll be there


[Chorus]

But I'll see your true colors
Shining through
I'll see your true colors
And that's why I love you
So don't be afraid to let them show
Your true colors
True colors are beautiful,
Like a Rainbow


[Verse 3]

Oooo....
(whispered)
can't remember
When I last saw you laughing
(sung)
If this world makes you crazy
And you've taken all you can bear
You call me up
Because you know I'll be there


[Final Chorus]

And I'll see your true colors
Shining through
I'll see your true colors
And that's why I love you
So don't be afraid to let them show
Your true colors, true colors,
true colors are shining through
I'll see your true colors
And that's why I love you
So don't be afraid to let them show
Your true colors, true colors
Beautiful,
Like a Rainbow

************************************

| h  Hammer-on

************************************
Suggest correction
comments
print report bad tab
6 comments total. Showing first comments.
+5 reply
m73m95 10 Nov 01, 2005 07:11 PM

dude, this kicks ass ........ great song, and great tab

+1 reply
beatles-fan 10 May 21, 2008 11:05 AM

Fabulous tab!

0 reply
shornlov 10 Nov 13, 2009 05:16 PM

beautiful song...awesome tab, love playing this, good finger style song. thank you!!

guest
You may want to rate the tab now too:
select rating
Wanna post a correction for this tab? Suggest correction