Oops, an error
Loading. Please wait.

I Want To Get High Bass Tab

2,960 views 3 this week
1 commentread comment
1 2 3 4 5
1 last vote to show rating
add to favorites
launch autoscroll
font size
0
reset
guitar tuner
×
Best way to learn
"I Want To Get High"
Autoscroll
slow
fast
+/-
esc
set tempo
stop
title : i want to get high 
artist:  cypress hill 
cd : black sunday
transcribed by : phi  


i messed up the first time i sent it in.. i think it sounds better like this 

---------------------------------------
---------------------------------------
-----------7-----7--------5----------
---0--7--------------7----------------

its the same as before ,but a half a step higher.. u can try either way ,,
thanks 

Suggest correction
Give kudos to tab author, rate the tab!
1 2 3 4 5
comments
print report bad tab
1 comment total.
0 reply
cornflakes93 180 Oct 29, 2012 06:51 AM

Were you high tabbing this out man? xD not in the right key even, heres the correct tab:

--------8--------6-----------------|
--------------8--------------------|
---6-6----6------------------------|
-----------------------------------|

guest
You may want to rate the tab now too:
select rating
Wanna post a correction for this tab? Suggest correction