Oops, an error
Loading. Please wait.

I Shit On You Tab

by D12
1,225 views 3 this week
1 commentread comment
1 2 3 4 5
x 3
add to favorites
launch autoscroll
font size
0
reset
how to read this tab
guitar tuner
Autoscroll
slow
fast
+/-
esc
set tempo
stop
Help us to improve Ultimate-Guitar.com Take our survey!
×
Author
-------------------------------------------------------------------------------
                             I Shit On You - D12
-------------------------------------------------------------------------------
Tabbed by: Sick Steve


Tuning: Standard


|-----------------------------|
|-----------------------------|
|-------9---------------------|
|7-9-10--10-9---7----7--------|
|--------------8--8-7--7------|
|-----------------------------|








Requests or corrections to: saltmakesmecough@yahoo.co.uk
Suggest correction
Give kudos to tab author, rate the tab!
1 2 3 4 5
comments
print report bad tab
1 comment total.
0 reply
yazper 271 Jun 03, 2010 03:10 PM

Try this instead


|-----------------------------|
|-----------------------------|
|-------9---------------------|
|7-10-7---10--7---7-----7-----|
|---------------8---8-7-------|
|-----------------------------|

guest
You may want to rate the tab now too:
select rating
Wanna post a correction for this tab? Suggest correction