Oops, an error
Loading. Please wait.

My Band bass

by D12
3,431 views 6 this week
2 commentsread comments
1 2 3 4 5
x 4
add to favorites
×
Save as Personal and add changes to this tab that will be seen only by you. Learn more ›
×
You can save this tab as Personal to edit and correct it or add notes. All changes will be seen only by you. Learn more »
launch autoscroll
font size
0
reset
guitar tuner
edit
Autoscroll
slow
fast
+/-
esc
set tempo
stop
D12 - My Band


Main Riff

   Q   E Q   E E E   E E E E E E E E   Q   E Q   E E E   Q   Q   H         
G|-----------------|-----------------|-----------------|-----------------|
D|-----------------|-----------------|-----------------|-----------------|
A|-------0-----4-0-|-2-1-2-----------|-------0-----4-0-|-2---------------|
E|-2---------------|-------------0-1-|-2---------------|-----------------|


Interlude

   W                 W                 H       H
G|-2+--------------|-1---------------|-----------------|
D|-----------------|-----------------|-4-------3-------|
A|-----------------|-----------------|-----------------|
E|-----------------|-----------------|-----------------|

   H       H         W                 W                 W                 W
G|-----------------|-----------------|-----------------|-----------------|-----------------|
D|-2-------1-------|-0---------------|-----------------|-----------------|-----------------|
A|-----------------|-----------------|-4---------------|-2---------------|-1---------------|
E|-----------------|-----------------|-----------------|-----------------|-----------------|




What do all the symbols mean?
-----------------------------

W - whole note (semibreve)
H - half note (minim)
Q - quarter note (crotchet)
E - 8th note (quaver)
S - 16th note (semiquaver)
T - 32nd note (demisemi quaver)
X - 64th note (hemidemisemi quaver)

            
            
Suggest correction
Creating personal tab
Creating personal tab
You can edit any tab online and save it as your Personal.

You can edit, replace or remove any tab part or add personal notes – all changes will be seen only by you.

Personal tabs can be accessed anytime from any device, even offline.
Learn more »
comments
print report bad tab
2 comments total.
0 reply
langley.fry 11 May 18, 2016 08:59 AM, edited at 01:02 pm

Comment Deleted

0 reply
langley.fry 11 May 18, 2016 09:02 AM

If you tune the E string to D and play.

Main Riff

Q E Q E E E E E E E E E E E Q E Q E E E Q Q H
G|-----------------|-----------------|-----------------|-----------------|
D|-----------------|-----------------|-----------------|-----------------|
A|-------0-----4-0-|-2-1-2-----------|-------0-----4-0-|-2---------------|
D|-4---------------|-------------1-2-|-4---------------|-----------------|

That will be correct.

guest
Wanna post a correction for this tab? Suggest correction