Oops, an error
Loading. Please wait.

Laffy Taffy Bass Tab

version 1
version 1

Whole song

Interactive

by D4L
482 views 1 this week
no commentswrite comment
1 2 3 4 5
3 more votes to show rating
add to favorites
launch autoscroll
font size
0
reset
guitar tuner
Autoscroll
slow
fast
+/-
esc
set tempo
stop
Help us to improve Ultimate-Guitar.com Take our survey!
×
Difficulty
novice
Laffy Taffy 
D4L
Tabbed By Andrew
Also By Judson

tab legend
X2 -Repeat
\or/ -Slide
h -hammeron
p -Pull Off


G-------------12------------12---|
D----10--10--------10--10--------|     X2
A--------------------------------|
E--------------------------------|

G-----------10----------12-------|
D----8--8--------8--8------------|     X2
A--------------------------------|
E--------------------------------|

Then You Double Tap the notes on the D String like so.....

G---------------12--------------12|
D----1010-1010-------1010-1010----|   X2
A---------------------------------|
E---------------------------------|


G-----------12----------12|
D----88-88-------88-88----|
A-------------------------|
E-------------------------|


All you need to do is use two fingers it's a simple song, and thank you.
Suggest correction
Give kudos to tab author, rate the tab!
1 2 3 4 5
comments
print report bad tab
guest
You may want to rate the tab now too:
select rating
Wanna post a correction for this tab? Suggest correction