Oops, an error
Loading. Please wait.

Laffy Taffy Tab

version 1
version 1

Interactive

by D4L
4,473 views 12 this week
5 commentsread comments
1 2 3 4 5
1 last vote to show rating
add to favorites
launch autoscroll
font size
0
reset
how to read this tab
guitar tuner
Autoscroll
slow
fast
+/-
esc
set tempo
stop
Help us to improve Ultimate-Guitar.com Take our survey!
×
Author
Difficulty
This is the whole song.
E---------------------------------------------------|
B---------------------------------------------------|
G---------------------------------------------------|
D---------------------------------------------------|
A------9---------7----------------------------------|
E--7-7---4X--5-5---4X-------------------------------|

This song is so easy.  Anyone can play it.  So all you rappers out there enjoy.

Here the link to the offical site www.d4lmusic.com
Suggest correction
Give kudos to tab author, rate the tab!
1 2 3 4 5
comments
print report bad tab
5 comments total. Showing first comments.
-1 reply
SonjaOfTheLamb 10 Dec 29, 2005 12:31 AM

Thats just odd... You dont tab out rap songs... Rock and like Contry... Not rap...

0 reply
tman3000 20 Jan 13, 2006 01:13 PM

E---------------------------------------------------|
B---------------------------------------------------|
G---------------------------------------------------|
D------4---------2----------------------------------|
A--2-2-------0-0------------------------------------|
E--------4X--------4X-------------------------------|

0 reply
adio_blacklabel 10 Jun 11, 2006 10:13 PM

actually its

A|---------10
E|--8---8----

A|----------8
E|--6---6----

guest
You may want to rate the tab now too:
select rating
Wanna post a correction for this tab? Suggest correction