Oops, an error
Loading. Please wait.

Laffy Taffy Tab

version 1
version 1

Whole song

Interactive

by D4L
904 views 9 this week
3 commentsread comments
1 2 3 4 5
2 more votes to show rating
add to favorites
launch autoscroll
font size
0
reset
how to read this tab
guitar tuner
×
Best way to learn
"Laffy Taffy"
Autoscroll
slow
fast
+/-
esc
set tempo
stop
Author
e|--------------------------------------------------------------------------|
B|--------------------------------------------------------------------------|
G|--------------------------------------------------------------------------|
D|-----4-----4-----4-----4-----3-----3-----3-----3--------------------------|
A|-2-2---2-2---2-2---2-2---1-1---1-1---1-1---1-1----------------------------|
E|--------------------------------------------------------------------------|

repeat it through the entire song
Suggest correction
Give kudos to tab author, rate the tab!
1 2 3 4 5
comments
print report bad tab
3 comments total.
0 reply
tman3000 20 Jan 13, 2006 08:10 AM

it should be-->
e|--------------------------------------------------------------------------|
B|--------------------------------------------------------------------------|
G|--------------------------------------------------------------------------|
D|-----4-----4-----4-----4-----2-----2-----2-----2--------------------------|
A|-2-2---2-2---2-2---2-2---0-0---0-0---0-0---0-0----------------------------|
E|--------------------------------------------------------------------------|

0 reply
adio_blacklabel 10 Jun 11, 2006 06:15 PM

nope its a C and Bb

0 reply
justjoshuaaa 155 May 06, 2017 09:38 AM

I hear it as

e|--------------------------------------------------------------------------|
B|--------------------------------------------------------------------------|
G|--------------------------------------------------------------------------|
D|-----4-----4-----4-----4-----3-----3-----3-----3--------------------------|
A|-3-3---3-3---3-3---3-3---1-1---1-1---1-1---1-1----------------------------|
E|--------------------------------------------------------------------------|

guest
You may want to rate the tab now too:
select rating
Wanna post a correction for this tab? Suggest correction