Oops, an error
Loading. Please wait.

Call Of The Wild tab

by D.A.D.
40 views 3 this week
no commentswrite comment
1 2 3 4 5
3 more votes to show rating
add to favorites
×
Save as Personal and add changes to this tab that will be seen only by you. Learn more ›
×
You can save this tab as Personal to edit and correct it or add notes. All changes will be seen only by you. Learn more »
launch autoscroll
font size
0
reset
how to read this tab
guitar tuner
edit
Autoscroll
slow
fast
+/-
esc
set tempo
stop
Author
Difficulty
[Intro]
(Use a slide for optimal effect)
(0-00:17 sec "The sandstorm"-part of the intro before the band kicks in)

e|-----|-------------|----------|----------|--------------|
B|-5\3-|-/5---8-8/10-|-8----5\3-|-/5---8-8-|-8\-3/5---5\3-|
G|-----|-------------|----------|----------|--------------|
D|-----|-------------|----------|----------|--------------|
A|-----|-------------|----------|----------|--------------|
E|-----|-------------|----------|----------|--------------|
 
   Am  C           G           Am   C       Em
e|---------------|-----------|------------|---------------|
B|---------------|-----------|------------|---------------|
G|---------------|-----------|------------|---------------|
D|---------------|-----------|------------|---------------|
A|-/7---10-10/12-|-10----7\5-|-/7---10-10-|-10\-5/7---7\5-|
E|---------------|-----------|------------|---------------|

   Am   C          G           Am   C       Em
e|---------------|-----------|------------|------------|
B|---------------|-----------|------------|------------|
G|---------------|-----------|------------|------------|
D|---------------|-----------|------------|------------|
A|-/7---10-10/12-|-10----7\5-|-/7---10-10-|-10\-5/7----|
E|---------------|-----------|------------|------------|


[Verse 1]
   Am    C        G             Am    C        Em
e|--------------|-------------|--------------|-----0-------|
B|----1-----5---|-----3-------|----1-----5---|-------0-----|
G|----2-----5---|-------4-----|----2-----5---|---------0---|
D|----2-----5---|---------5---|----2-----5---|-----------2-|
A|--------------|-----------5-|--------------|-------------|
E|--------------|-------------|--------------|-------------|

    Am         C                  G
The night they took him to the graveyard
           Am     C           Em
It was moonlight; call of the wild
     Am            C          G
They forced him to bury his father
   Am          C        Em
Oh boy, he was only a child
        Am     C          G
He grew older, meaner and vicious
        Am            C          Em
And the glance of his eyes got malicious
   Am              C             G
He thought about revenging his father
   Am               C            Em
He sweared he would turn out as another


[Chorus 1]
   Am  C           G           Am   C       Em
e|---------------|-----------|------------|---------------|
B|---------------|-----------|------------|---------------|
G|---------------|-----------|------------|---------------|
D|---------------|-----------|------------|---------------|
A|-/7---10-10/12-|-10----7\5-|-/7---10-10-|-10\-5/7---7\5-|
E|---------------|-----------|------------|---------------|

   Am   C          G           Am   C       Em
e|---------------|-----------|------------|------------|
B|---------------|-----------|------------|------------|
G|---------------|-----------|------------|------------|
D|---------------|-----------|------------|------------|
A|-/7---10-10/12-|-10----7\5-|-/7---10-10-|-10\-5/7----|
E|---------------|-----------|------------|------------|

            Am    C    G
Call of the wild
            Am    C    Em
Call of the wild
            Am    C    G
Call of the wild
            Am    C    Em
Call of the wild

[Verse 2]
   Am    C        G             Am    C        Em
e|--------------|-------------|--------------|-----0-------|
B|----1-----5---|-----3-------|----1-----5---|-------0-----|
G|----2-----5---|-------4-----|----2-----5---|---------0---|
D|----2-----5---|---------5---|----2-----5---|-----------2-|
A|--------------|-----------5-|--------------|-------------|
E|--------------|-------------|--------------|-------------|

   Am           C                 G
He travelled on trail wide and narrow
         Am       C            Em
He would draw and shoot at any shadow
Am           C              G
Checking the decks with his back to the wall
Am         C             Em
Hiding the tracks of his lonely call
    Am           C                   G
The blood on his hands was still dripping
Am           C             Em
Hunting by instinct and no sleeping
     Am           C              G
He remembered the face of the gunman
    Am              C            Em
Who slaughtered his dad the same evening

[Chorus 2]
   Am  C           G           Am   C       Em
e|---------------|-----------|------------|---------------|
B|---------------|-----------|------------|---------------|
G|---------------|-----------|------------|---------------|
D|---------------|-----------|------------|---------------|
A|-/7---10-10/12-|-10----7\5-|-/7---10-10-|-10\-5/7---7\5-|
E|---------------|-----------|------------|---------------|

   Am   C          G           Am   C       Em
e|---------------|-----------|------------|------------|
B|---------------|-----------|------------|------------|
G|---------------|-----------|------------|------------|
D|---------------|-----------|------------|------------|
A|-/7---10-10/12-|-10----7\5-|-/7---10-10-|-10\-5/7----|
E|---------------|-----------|------------|------------|

            Am    C    G
Call of the wild
            Am    C    Em
Call of the wild
            Am    C    G
Call of the wild
            Am    C    Em
Call of the wild

   G
e|-3-----3-3-|-3-----3-3-|-3------|-3-3-3-3-3-3-3-3-|
B|-3-----3-3-|-3-----3-3-|-3------|-3-3-3-3-3-3-3-3-|
G|-0-----0-0-|-0-----0-0-|-0------|-0-0-0-0-0-0-0-0-|
D|-0-----0-0-|-0-----0-0-|-0------|-0-0-0-0-0-0-0-0-|
A|-2-----2-2-|-2-----2-2-|-2------|-2-2-2-2-2-2-2-2-|
E|-3-----3-3-|-3-----3-3-|-3------|-3-3-3-3-3-3-3-3-|

[Bridge]
(Piano arranged for guitar)
   Am  C   G        Am C   Em       Am C  G         Am C   Em
e|-------|--------|------|--------|------|--------|------|---------|
B|-10--8-|-8--8-6-|-5--5-|-5--5-3-|------|--------|------|---------|
G|-9---9-|-7--7---|-5--5-|-4--4---|-5--5-|-4--4-0-|-2--0-|-0-------|
D|-------|--------|------|--------|-7--5-|-5--5---|-2----|-2-------|
A|-------|--------|------|--------|------|--------|----3-|---------|
E|-------|--------|------|--------|------|--------|------|---------|

(Use a slide for optimal effect)

   Am  C     G        Am  C    Em       Am  C    G        Am  C    Em
e|---------|--------|--------|--------|--------|--------|--------|--------|
B|---------|--------|--------|--------|--------|--------|--------|--------|
G|---------|--------|--------|--------|--------|--------|--------|--------|
D|---------|--------|--------|--------|--------|--------|--------|--------|
A|---------|--------|--------|--------|--------|--------|--------|--------|
E|-5--/8---|-3------|-5--/8--|-12-----|-5--/8--|-3------|-5--/8--|-0------|

    Am         C                  G
The night they took him to the graveyard
           Am     C           Em
It was moonlight; call of the wild
     Am            C          G
They forced him to bury his father
   Am          C        Em
Oh boy, he was only a child

[Chorus 3]
   Am  C           G           Am   C       Em
e|---------------|-----------|------------|---------------|
B|---------------|-----------|------------|---------------|
G|---------------|-----------|------------|---------------|
D|---------------|-----------|------------|---------------|
A|-/7---10-10/12-|-10----7\5-|-/7---10-10-|-10\-5/7---7\5-|
E|---------------|-----------|------------|---------------|

   Am   C          G           Am   C       Em
e|---------------|-----------|------------|------------|
B|---------------|-----------|------------|------------|
G|---------------|-----------|------------|------------|
D|---------------|-----------|------------|------------|
A|-/7---10-10/12-|-10----7\5-|-/7---10-10-|-10\-5/7----|
E|---------------|-----------|------------|------------|

            Am    C    G
Call of the wild
            Am    C    Em
Call of the wild
            Am    C    G
Call of the wild
            Am    C    Em
Call of the wild


************************************

| /   Slide up
| \   Slide down

***********************************

            
            
Suggest correction
Creating personal tab
Creating personal tab
You can edit any tab online and save it as your Personal.

You can edit, replace or remove any tab part or add personal notes – all changes will be seen only by you.

Personal tabs can be accessed anytime from any device, even offline.
Learn more »
Give kudos to tab author, rate the tab!
1 2 3 4 5
comments
print report bad tab
guest
You may want to rate the tab now too:
select rating
Wanna post a correction for this tab? Suggest correction